Oops, an error
Loading. Please wait.

Head Carrier Bass Tab

version 1
version 1

Whole song

Interactive

46 views 3 this week
no commentswrite comment
1 2 3 4 5
3 more votes to show rating
add to favorites
launch autoscroll
font size
0
reset
guitar tuner
Autoscroll
slow
fast
+/-
esc
set tempo
stop
Help us to improve Ultimate-Guitar.com Take our survey!
×
[Intro]

G|-------------------------------------------------------------------------------|
D|-------------------------------------------------------------------------------|
A|-0-0-0-0-0-0-0-0-0-0---------------------0-0-0-0-0-0-0-0-0-0-------------------|
E|---------------------0-0-0-0-0-0-0-0-0-0---------------------0-0-0-0-0-0-0-0-0-|

G|-------------------------------------------------------------------------------|
D|-------------------------------------------------------------------------------|
A|-0-0-0-0-0-0-0-0-0-0---------------------0-0-0-0-0-0-0-0-0-0-------------------|
E|---------------------0-0-0-0-0-0-0-0-0-0---------------------0-0-0-0-0-0-0-0-0-|

G|-------------------------------------------------------------------------------|
D|-------------------------------------------------------------------------------|
A|-0-0-0-0-0-0-0-0-0-0---------------------0-0-0-0-0-0-0-0-0-0-------------------|
E|---------------------0-0-0-0-0-0-0-0-0-0---------------------0-0-0-0-0-0-0-0-0-|

G|-------------------------------------------------------------------------------|
D|-------------------------------------------------------------------------------|
A|-0-0-0-0-0-0-0-0-0-0---------------------0-0-0-0-0-0-0-0-0-0-------------------|
E|---------------------0-0-0-0-0-0-0-0-0-0---------------------0-0-0-0-0-0-0-0-0-|

[Verse]

G|---------------------------------------------------------------------------|
D|---------------------------------------------------------------------------|
A|-0-0-0-0-0-0-0-2-2-2-2-2-2-------------------------------------------------|
E|---------------------------1-1-1-1-1-1-1-1-1-0-0-0-0-0-0-0-0-0-------------|

G|---------------------------------------------------------------------------|
D|---------------------------------------------------------------------------|
A|-0-0-0-0-0-0-0-2-2-2-2-2-2-3-3-3-3-3-3-3-3-3-------------------------------|
E|---------------------------------------------0-0-0-0-0-0-0-0-0-------------|


[Chorus]

G|---------------------------------------------------------------------------------------|
D|---------------------------------------------------------------------------------------|
A|-----------------------------------------5-5-5-5-5-5-5-5-5-5-5-5-----------------------|
E|-1-1-1-1-1-1-1-1-1-1-0-0-0-0-0-0-0-0-0-0-------------------------3-3-3-3-3-3-3-3-3-3-3-|

G|---------------------------------------------------------------------------|
D|---------------------------------------------------------------------------|
A|-3-3-3-3-3-3-3-3-3-3---------------5-5-5-5-5-5-5---------------------------|
E|---------------------5-5-5-5-5-5-5---------------3-3-3-3-4-4-4-4-----------|

G|-------------------------------------------------------------------------------|
D|-------------------------------------------------------------------------------|
A|-0-0-0-0-0-0-0-0-0-0---------------------0-0-0-0-0-0-0-0-0-0-------------------|
E|---------------------0-0-0-0-0-0-0-0-0-0---------------------0-0-0-0-0-0-0-0-0-|

G|-------------------------------------------------------------------------------|
D|-------------------------------------------------------------------------------|
A|-0-0-0-0-0-0-0-0-0-0---------------------0-0-0-0-0-0-0-0-0-0-------------------|
E|---------------------0-0-0-0-0-0-0-0-0-0---------------------0-0-0-0-0-0-0-0-0-|

[Verse]

G|---------------------------------------------------------------------------|
D|---------------------------------------------------------------------------|
A|-0-0-0-0-0-0-0-2-2-2-2-2-2-------------------------------------------------|
E|---------------------------1-1-1-1-1-1-1-1-1-0-0-0-0-0-0-0-0-0-------------|

G|---------------------------------------------------------------------------|
D|---------------------------------------------------------------------------|
A|-0-0-0-0-0-0-0-2-2-2-2-2-2-3-3-3-3-3-3-3-3-3-------------------------------|
E|---------------------------------------------0-0-0-0-0-0-0-0-0-------------|

[Chorus]

G|---------------------------------------------------------------------------------------|
D|---------------------------------------------------------------------------------------|
A|-----------------------------------------5-5-5-5-5-5-5-5-5-5-5-5-----------------------|
E|-1-1-1-1-1-1-1-1-1-1-0-0-0-0-0-0-0-0-0-0-------------------------3-3-3-3-3-3-3-3-3-3-3-|

G|---------------------------------------------------------------------------|
D|---------------------------------------------------------------------------|
A|-3-3-3-3-3-3-3-3-3-3---------------5-5-5-5-5-5-5---------------------------|
E|---------------------5-5-5-5-5-5-5---------------3-3-3-3-3-3-3-3-----------|

G|---------------------------------------------------------------------------|
D|---------------------------------------------------------------------------|
A|-3-3-3-3-3-3-3-3-3-3---------------5-5-5-5-5-5-5---------------------------|
E|---------------------5-5-5-5-5-5-5---------------3-3-3-3-3-3-3-3-----------|

G|---------------------------------------------------------------------------|
D|---------------------------------------------------------------------------|
A|-3-3-3-3-3-3-3-3-3-3---------------5-5-5-5-5-5-5---------------------------|
E|---------------------5-5-5-5-5-5-5---------------3-3-3-3-4-4-4-4-5---------|

BRIDGE

G|-------------------------------------------------------------------------------|
D|-------------------------------------------------------------------------------|
A|-0-0-0-0-0-0-0-0-0-0---------------------0-0-0-0-0-0-0-0-0-0-------------------|
E|---------------------0-0-0-0-0-0-0-0-0-0---------------------0-0-0-0-0-0-0-0-0-|

[Outro]

G|---------------------------------------------------------------------|
D|---------------------------------------------------------------------|
A|-0-0-0-0-0-0-0-0-0-0-3-2-3-2---0-0-0-0-0-0-0-0-0-0-------------------|
E|-----------------------------3---------------------0-0-0-0-0-0-0-0-0-|

G|---------------------------------------------------------------------|
D|---------------------------------------------------------------------|
A|-0-0-0-0-0-0-0-0-0-0-3-2-3-2---0-0-0-0-0-0-0-0-0-0-------------------|
E|-----------------------------3---------------------0-0-0-0-0-0-0-0-0-|

G|---------------------------------------------------------------------|
D|---------------------------------------------------------------------|
A|-0-0-0-0-0-0-0-0-0-0-3-2-3-2---0-0-0-0-0-0-0-0-0-0-------------------|
E|-----------------------------3---------------------0-0-0-0-0-0-0-0-0-|

G|---------------------------------------------------------------------|
D|---------------------------------------------------------------------|
A|-0-0-0-0-0-0-0-0-0-0-3-2-3-2---0-0-0-0-0-0-0-0-0-0-------------------|
E|-----------------------------3---------------------0-0-0-0-0-0-0-0-0-|

G|---------------------------------------------------------------------|
D|---------------------------------------------------------------------|
A|-0-0-0-0-0-0-0-0-0-0-3-2-3-2---0-0-0-0-0-0-0-0-0-0-------------------|
E|-----------------------------3---------------------0-0-0-0-0-0-0-0-0-|

G|-----------------------------------------------------------------------|
D|-----------------------------------------------------------------------|
A|-0-0-0-0-0-0-0-0-0-0-3-2-3-2---0-0-0-0-0-0-0-0-0-0-------------------0-|
E|-----------------------------3---------------------0-0-0-0-0-0-0-0-0---|
Suggest correction
Give kudos to tab author, rate the tab!
1 2 3 4 5
comments
print report bad tab
guest
You may want to rate the tab now too:
select rating
Wanna post a correction for this tab? Suggest correction