Oops, an error
Loading. Please wait.
We have an official Here Comes Your Man tab made by UG professional guitarists. Check out the tab »
×
by Pixies
15,503 views 21 this week
1 commentread comment
1 2 3 4 5
x 4
add to favorites
×
Save as Personal and add changes to this tab that will be seen only by you. Learn more ›
×
You can save this tab as Personal to edit and correct it or add notes. All changes will be seen only by you. Learn more »
launch autoscroll
font size
0
reset
guitar tuner
backing track
0:00
0:00
edit
Autoscroll
slow
fast
+/-
esc
set tempo
stop
Author
Unregistered
Mostly posted this because most tabs I've seen use closed fingerings only and I prefer 
when possible

1 + 2 + 3 + 4 +  1 + 2 + 3 + 4 +
G|----------------|----------------|
D|-0-0-4-4-5------|-------------0--|
A|-----------0----|-2-0-0-4-5-7----|
E|-------------3--|----------------|

   1 + 2 + 3 + 4 +  1 + 2 + 3 + 4 +
G|----------------|----------------|
D|-0-0-4-4-5------|----------------|
A|-----------0----|-2-0-0-4-5-7----|
E|-------------3--|----------------|

[Verse]
(x4)
  1 + 2 + 3 + 4 + 1 + 2 + 3 + 4 + 1 + 2 + 3 + 4 + 1 + 2 + 3 + 4 +
G|---------------|---------------|---------------|---------------|
D|0-----0-----0--|---------------|---------------|---------------|
A|----------0----|0-0---0-4-4-5--|---------------|--------2-2-3-3|
E|---------------|--------------5|0-----0---0-2--|3-3---3------ -|

[Before the Chorus, play this one time]
  1 + 2 + 3 + 4 + 1 + 2 + 3 + 4 + 1 + 2 + 3 + 4 + 1 + 2 + 3 + 4 +
G|---------------|---------------|---------------|---------------|
D|---------------|---------------|---------------|0-0-0-0-4-4-5-7|
A|2-----2-2------|---------------|0---0-0-0-0-0-0|---------------|
E|---------------|3-----3-3------|---------------|---------------|

[Start of the Chorus]
   5 +  1 + 2 + 3 + 4 +
G|----|----------------|
D|----|-------------0--|
A|----|-2-0-0-4-5-7----|
E|-3--|----------------|

[Chorus]
   1 + 2 + 3 + 4 +  1 + 2 + 3 + 4 +
G|----------------|----------------|
D|-0-0-4-4-5------|-------------0--|
A|-----------0----|-2-0-0-4-5-7----|
E|-------------3--|----------------|

   1 + 2 + 3 + 4 +  1 + 2 + 3 + 4 +
G|----------------|----------------|
D|-0-0-4-4-5------|----------------|
A|-----------0----|-2-0-0-4-5-7----|
E|-------------3--|----------------|

[The Verse Again]
   1 + 2 + 3 + 4 + 1 + 2 + 3 + 4 +  1 + 2 + 3 + 4 + 1 + 2 + 3 + 4 +
G|----------------|----------------|---------- ----|----------------|
D|-0-----0-----0--|----------------|---------------|----------------|
A|-----------0----|0-0---0-4-4-5-0-|---------------|--------2---3---|
E|----------------|----------------|0-----0---0-2--|3-3---3---------|

(x2)
   1 + 2 + 3 + 4 + 1 + 2 + 3 + 4 +  1 + 2 + 3 + 4 + 1 + 2 + 3 + 4 +
G|----------------|----------------|---------------|----------------|
D|-0-----0-----0--|----------------|---------------|----------------|
A|-----------0----|0-0---0-4-4-5---|---------------|--------2-2-3-3-|
E|----------------|--------------5-|0-----0---0-2--|3-3---3---------|

   1 + 2 + 3 + 4 + 1 + 2 + 3 + 4 + 1 + 2 + 3 + 4 + 1 + 2 + 3 + 4 +
G|----------------|---------------|---------------|----------------|
D|----------------|---------------|---------------|0-0-0-0-4-4-5-7-|
A|-2-----2-2------|---------------|0--0-0-0-0-0-0-|----------------|
E|----------------|3-----3-3------|---------------|----------------|

[Start of the Chorus]
   5 +  1 + 2 + 3 + 4 +
G|----|----------------|
D|----|-------------0--|
A|----|-2-0-0-4-5-7----|
E|-3--|----------------|

[Chorus](x2)
   1 + 2 + 3 + 4 +  1 + 2 + 3 + 4 +
G|----------------|----------------|
D|-0-0-4-4-5------|-------------0--|
A|-----------0----|-2-0-0-4-5-7----|
E|-------------3--|----------------|

   1 + 2 + 3 + 4 +  1 + 2 + 3 + 4 +
G|----------------|----------------|
D|-0-0-4-4-5------|----------------|
A|-----------0----|-2-0-0-4-5-7----|
E|-------------3--|----------------|

[Interlude/ Solo-Part]
   1 + 2 + 3 + 4 +  1 + 2 + 3 + 4 +  1 + 2 + 3 + 4 +  1 + 2 + 3 + 4 +
G|-----------------|----------------|----------------|-----------------|
D|-----------------|----------------|----------------|5-4-4-2-5-5-4-4-2|
A|-5-5-5---5-5-5-5-|----------------|7-7-7---7-7-7-7-|-----------------|
E|-------5---------|5-5-5-0-5-5-5-5-|------7---------|-----------------|

G|-----------------|----------------|----------------|----------------2|
D|-----------------|----------------|----------------|5-4-4-2-5-5-4-4--|
A|-5-5-5---5-5-5-5-|----------------|7-7-7---7-7-7-7-|-----------------|
E|-------5---------|5-5-5-0-5-5-5-5-|------7---------|-----------------|

G|-----------------|----------------|----------------|------------------------|
D|-----------------|----------------|----------------|------------------------|
A|-5-5-5---5-5-5-5-|----------------|7-7-7-7-7-7-7-7-|10-10-10-10-10-10-10-10-|
E|-------5---------|5-5-5-0-5-5-5-5-|----------------|------------------------|

G|-----------------|----------------|----------------|------------------------|
D|-----------------|----------------|----------------|------------------------|
A|-5-5-5-5-5-5-5-5-|----------------|7-7-7-7-7-7-7-7-|10-10-10-10-10-10-10-10-|
E|-----------------|5-5-5-5-5-5-5-5-|----------------|------------------------|

  1 + 2 + 3 + 4 + 1 + 2 + 3 + 4 + 1 + 2 + 3 + 4 +  1 + 2 + 3 + 4 +  1 +
G|---------------|---------------|----------------|----------------|----|
D|---------------|---------------|----------------|0-0-0-0-0-0-0-0-|0---|
A|2-----2-2------|3-----3-3------|0---0-0-0-0-0-0-|----------------|----|
E|---------------|---------------|----------------|----------------|----|

[Play the Chorus again until the end]
   1 + 2 + 3 + 4 +  1 + 2 + 3 + 4 +
G|----------------|----------------|
D|-0-0-4-4-5------|-------------0--|
A|-----------0----|-2-0-0-4-5-7----|
E|-------------3--|----------------|

            
            
Suggest correction
Creating personal tab
Creating personal tab
You can edit any tab online and save it as your Personal.

You can edit, replace or remove any tab part or add personal notes – all changes will be seen only by you.

Personal tabs can be accessed anytime from any device, even offline.
Learn more »
comments
print report bad tab
1 comment total.
0 reply
Jordo141 483 Jun 28, 2010 08:00 AM

Best version of this tab

guest
Wanna post a correction for this tab? Suggest correction