Oops, an error
Loading. Please wait.

Hey Bass Tab

version 1
version 1
35,761 views 36 this week
no commentswrite comment
1 2 3 4 5
x 8
add to favorites
launch autoscroll
font size
0
reset
guitar tuner
×
Best way to learn
"Hey"
Autoscroll
slow
fast
+/-
esc
set tempo
stop
Song: HEY
Band: PIXIES
Album: DOOLITTLE
Bass: Kim Deal

Main Riff
G|-------------------------|-----------------------|
D|-------------------------|-----------------------|
A|-------------------------|-0h1h2--2-2-3h4h5--5-5-|
E|-0-2h3--3-3-0h1h2--2-2---|-----------------------|

[Chorus]
G|------------------------------------------------------|
D|------------------------------------------------------|
A|--2-2-2-2-2-2-2-2-------------------------------------|
E|------------------3-3-3-3-3-3-3-3--0-0-0-0-0-0-0-0----|

************************************

| h  Hammer-on

************************************
Suggest correction
comments
print report bad tab
guest
You may want to rate the tab now too:
select rating
Wanna post a correction for this tab? Suggest correction