Oops, an error
Loading. Please wait.
We have Chord Pro version of Hey.
It's the closest thing you can get to the original song and it has interactive parts. Check out the tab »
×
by Pixies
101,002 views 333 this week
6 commentsread comments
1 2 3 4 5
x 45
add to favorites
×
Save as Personal and add changes to this tab that will be seen only by you. Learn more ›
launch autoscroll
font size
0
reset
guitar tuner
backing track
0:00
0:00
Autoscroll
slow
fast
+/-
esc
set tempo
stop
Author
+++++++++++++++++++
| The Pixies- Hey |
+++++++++++++++++++

Esta tab se la dedico a mi primita linda de Stgo!
:D
Viste ke no me olvide de ti y ke te tengo en mente :)
Miles besitos, esta wena la song (H)
Ya bye (K) kuidate, te kiero arto !

Tuning: EADG

[Verse]
"Been trying to meet you..."
1.
G|-------------------------------------------------------------|
D|-------------------------------------------------------------|
A|-------0-1-2~--2~--2-3-4-5~--5~--5---------------------------|
E|-2~--------------------------------0-2-3~--3~--3-0-1-2~--2~--|

"Must be a devil between us..."
2.
G|--------------------------------------------------------|
D|--------------------------------------------------------|
A|---0-1-2~--2~--2-3-4-5~--5~--5--------------------------|--x2
E|-2-----------------------------0-2-3~--3~--3-0-1-2~--2~-|

3.
G|-----------------------------------------------------------------------------------------------|
D|-----------------------------------------------------------------------------------------------|
A|---0-1-2~--2~--2-3-4-5~--5~--5-----------------2-2-2-2-2-2-2-2---------------------------------|
E|-2-----------------------------0-2-3~----0~--------------------3-3-3-3-3-3-3-3-0-0-0-0-0-0-0-0-|


[Chorus]
"We're chained..."
4.
G|-----------------------------------------------------------------|
D|-----------------------------------------------------------------|
A|-2-2-2-2-2-2-2-2---------------------------------2-2-2-2-2-2-2-2-|
E|-----------------3-3-3-3-3-3-3-3-0-0-0-0-0-0-0-0-----------------|

----------------------------------------------------------------|
----------------------------------------------------------------|
--------------------------------2-2-2-2-2-2-2-2-----------------|
3-3-3-3-3-3-3-3-0-0-0-0-0-0-0-0-----------------3-3-3-3-3-3-3-3-|

5.
G|---------------------------------|
D|---------------------------------|
A|-----------------2-2-2-2-2-2-2-2-|
E|-0-0-0-0-0-0-0-0-----------------|

6.
G|---------------------------------------------------------|
D|---------------------------------------------------------|
A|-------------------------0-1-2~--2~--2-3-4-5~--5~--5-----|--x5
E|-3~--3~--3-0-1-2~--2~--2-----------------------------0-2-|

"Said the man to the lady..."
7.
G|---------------------------------------------------------|
D|---------------------------------------------------------|
A|-------------------------0-1-2~--2~--2-3-4-5~--5~--5-----|
E|-3~--------0-1-2-------------------------------------0-2-|

8.
G|---------------------------------------------------------|
D|---------------------------------------------------------|
A|-------------------------0-1-2~--2~--2-3-4-5~--5~--5-----|--x3
E|-3~--3~--3-0-1-2~--2~--2-----------------------------0-2-|

9.
G|-------------------------------------------------------------|
D|-------------------------------------------------------------|
A|-------------2-2-2-2-2-2-2-2---------------------------------|
E|-3~----0~--------------------3-3-3-3-3-3-3-3-0-0-0-0-0-0-0-0-|

[Chorus]
"We're chained..."
10.
G|------------------------------------------------------------------------------------------------|
D|------------------------------------------------------------------------------------------------|
A|-2-2-2-2-2-2-2-2---------------------------------2-2-2-2-2-2-2-2--------------------------------|
E|-----------------3-3-3-3-3-3-3-3-0-0-0-0-0-0-0-0-----------------3-3-3-3-3-3-3-3-0-0-0-0-0-0-0-0|

-------------------------------------------------|
-------------------------------------------------|
-2-2-2-2-2-2-2-2---------------------------------|
-----------------3-3-3-3-3-3-3-3-0-0-0-0-0-0-0-0-|

11.
G|-----------------------------------------------------------|
D|-----------------------------------------------------------|
A|-2-2-2-2-2-2-2-2---------------------------------2~--------|
E|-----------------3-3-3-3-3-3-3-3-0-0-0-0-0-0-0-0-----------|

Lyrics:

Hey
Been trying to meet you
Must be a devil between us
Or whores in my head
Whores at my door
Whores in my bed
But hey, where have you been 
if you go I will surely die
We're chained

Uh said the man to the lady
Uh said the lady to the man she adored
And the whores like a choir
Go uh all night
And mary ain't you tired of this
Uh is the sound
That the mother makes when the baby breaks
We're chained

+++++++++++++++++++++++++++++++++
| RaiLeff                       |
| Underground__Dora@Hotmail.Com |
+++++++++++++++++++++++++++++++++



************************************

| ~  Vibrato

************************************
Suggest correction
comments
print report bad tab
6 comments total. Showing first comments.
+5 reply
Just2Rusty 30 Feb 20, 2009 11:53 PM

Shit yeah!

0 reply
myurineispoop91 10 Aug 09, 2013 04:58 PM

:DDDDDDDDDDDDDDDD

0 reply
gibbley 10 May 25, 2014 04:25 PM

great f-ing song

guest
You may want to rate the tab now too:
select rating
Wanna post a correction for this tab? Suggest correction