Oops, an error
Loading. Please wait.

Indie Cindy Tab

15,947 views 57 this week
4 commentsread comments
1 2 3 4 5
excellent!
x 13
add to favorites
launch autoscroll
font size
0
reset
how to read this tab
guitar tuner
Tab Pro tools
  • play this tab
  • loop segment
  • change instrument
  • show fretboard
  • metronome
Autoscroll
slow
fast
+/-
esc
set tempo
stop
Contributor
Indie Cindy - Pixies
--------------------

Great new song by Pixies. Here is the tab. It's mostly correct. The only part I am not so 
sure about is the solo, but you try tabbing Joey's thrashing about.
The song is best played with the guitar tuned one half-tone lower (Eb tuning), but since 
I hate tuning the guitar, I wrote the tab both for regular tuning, and for Eb tuning.
Correction welcomed! Thanks and enjoy.

Regular tuning:
---------------

   B        F#       G#m               E     B        F#    G#m E
e---------|--------|-----------------|-----|-------------------------|
B---------|--------|-----------------|-----|-------------------------|
G------4~-|--------|------4~-4-4-----|-4~--|-------------------------|
D--4/6----|--------|--4/6----6-6---6-|-----|-------------------------|
A---------|-4/6-4~-|-----------------|-----|--4/6-6-6-4~----6-4------|
E---------|--------|-----------------|-----|--------------7-----7~---|

2nd part of intro and verse:
  G#m               G#m    F#       G       G#m      B     Ebm
e--------------|--|-----------------3-----|----------7777--11-11-11-11-|
B--------------|--|-----------------3-----|----------7777--11-11-11-11-|
G--------------|--|-----------------4-----|----------8888--11-11-11-11-| x3
D--------------|x3|---------------4-5-----|----------------------------|
A----6-5-------|--|---6-5-----2-1-------4-|---6-5----------------------|
E--4-----7-6-7-|--|-4-----7-2---------3---|-4-----7--------------------|

e---------------|
B---------------|
G---------------|
D---------------|
A---7-6---------|
E-4-----7-6-5-4-| go into chorus:

Chorus:
G#m        F#            B      Bb
  I am in love with your daughter
C#m              Ebm    G#m F#
  And though she has no need
B         Ebm       G#m      F#
  I'm the one who's got some trotters
C#m           F#        B
  You've many mouths to feed

B       F#
  Indie   Cindy
G#m                E
   Be in love with me
B          F#     G#m   E
 I beg for you to carry me

Verse:
  G#m               pause    F#       G       G#m     B     Ebm
e--------------|--|------|-----------3-----|----------7777--11-11-11-11-|
B--------------|--|------|-----------3-----|----------7777--11-11-11-11-|
G--------------|--|------|-----------4-----|----------8888--11-11-11-11-|
D--------------|x3|------|---------4-5-----|----------------------------|
A----6-5-------|--|------|-----2-1-------4-|---6-5----------------------|
E--4-----7-6-7-|--|------|-7-2---------3---|-4-----7--------------------|

Solo (most notes are with tremolo picking - listen to the song):
e-----------------------|----------------|----------------------------|
B-----------------------|----------------|----------------------------|
G---------------------4-|---------------4|--------------------------4-|
D-4/6666-4/6666-4-6-----|-4/666666664----|-6-4-5-6-7-8-9-10---------6-|
A-------------------6---|-------------6--|----------------------5b6---|
E-----------------------|----------------|------------------3b4-------|

e--4444-------|
B--4444444444-|The last note feedback into the last verse.
G-------------|You can emulate the sound by playing 11 on
D-------------|high e string.
A-------------|
E-------------|

Last verse:
 G#m                G#m    F#       G       G#m      B     Ebm
e--------------|--|-----------------3-----|----------7777--11-11-11-11-|
B--------------|--|-----------------3-----|----------7777--11-11-11-11-|
G--------------|--|-----------------4-----|----------8888--11-11-11-11-|
D--------------|x3|---------------4-5-----|----------------------------|
A----6-5-------|--|---6-5-----2-1-------4-|---6-5----------------------|
E--4-----7-6-7-|--|-4-----7-2---------3---|-4-----7--------------------|

e---------------|
B---------------|
G---------------|
D---------------|
A---7-6---------|
E-4-----7-6-5-4-| go into chorus:

Chorus:
G#m        F#            B      Bb
  I am in love with your daughter
C#m              Ebm    G#m F#
  And though she has no need
B         Ebm       G#m      F#
  I'm the one who's got some trotters
C#m           F#        B  Bb
  You've many mouths to feed

G#m        F#            B      Bb
  I am in love with your daughter
C#m              Ebm    G#m F#
  And though she has no need
B         Ebm       G#m      F#
  I'm the one who's got some trotters
C#m           F#        B
  You've many mouths to feed

B       F#
  Indie   Cindy
G#m                E
   Be in love with me
B          F#     G#m   E
 I beg for you to carry me

repeat last part three times and then last line two more times and end on B


Eb tuning (EbAbDbGbBbEb):
-------------------------

   C        G         Am               F     C        G    Am  F
e---------|--------|-----------------|-----|-------------------------|
B---------|--------|-----------------|-----|-------------------------|
G------5~-|--------|------5~-5-5-----|-5~--|-------------------------|
D--5/7----|--------|--5/7----7-7---7-|-----|-------------------------|
A---------|-5/7-5~-|-----------------|-----|--5/7-7-7-5~----7-5------|
E---------|--------|-----------------|-----|--------------8-----8~---|

2nd part of intro and verse:
  Am                Am       G       G#     Am       C     Em
e--------------|--|-----------------4-----|----------8888--12-12-12-12-|
B--------------|--|-----------------4-----|----------8888--12-12-12-12-|
G--------------|--|-----------------5-----|----------9999--12-12-12-12-| x3
D--------------|x3|---------------5-6-----|----------------------------|
A----7-6-------|--|---7-6-----3-2-------5-|---7-6----------------------|
E--5-----8-7-8-|--|-5-----8-3---------4---|-5-----8--------------------|

e---------------|
B---------------|
G---------------|
D---------------|
A---8-7---------|
E-5-----8-7-6-5-| go into chorus:

Chorus:
For the first part of the chorus (until the "Indie Cindy" part), I think it sounds 
better to plays barre chords. C - x35553  Dm - x57765  Em - x79987
Am        G              C      B
  I am in love with your daughter
Dm               Em    Am G
  And though she has no need
C         Em        Am       G
  I'm the one who's got some trotters
Dm            G         C
  You've many mouths to feed

C       G
  Indie   Cindy
Am                F
   Be in love with me
C          G     Am   F
 I beg for you to carry me

Verse:
 Am                  pause    G        G#      Am      C     Em
e--------------|--|------|-----------4-----|----------8888--12-12-12-12-|
B--------------|--|------|-----------4-----|----------8888--12-12-12-12-|
G--------------|--|------|-----------5-----|----------9999--12-12-12-12-|
D--------------|x3|------|---------5-6-----|----------------------------|
A----7-6-------|--|------|-----3-2-------5-|---7-6----------------------|
E--5-----8-7-8-|--|------|-8-3---------4---|-5-----8--------------------|

Solo (most notes are with tremolo picking - listen to the song):
e-----------------------|----------------|------------------------------|
B-----------------------|----------------|------------------------------|
G---------------------5-|---------------5|----------------------------5-|
D-5/7777-5/7777-5-7-----|-5/777777775----|-7--5-6-7-8-9-10-11---------7-|
A-------------------7---|-------------7--|------------------------6b7---|
E-----------------------|----------------|--------------------4b5-------|

e--5555-------|
B--5555555555-|The last note feedback into the last verse.
G-------------|You can emulate the sound by playing 12 on
D-------------|high e string.
A-------------|
E-------------|

Last verse:
 Am                 Am    G       G#      Am      C     Em
e--------------|--|-----------------4-----|----------8888--12-12-12-12-|
B--------------|--|-----------------4-----|----------8888--12-12-12-12-|
G--------------|--|-----------------5-----|----------9999--12-12-12-12-|
D--------------|x3|---------------5-6-----|----------------------------|
A----7-6-------|--|---7-6-----3-2-------5-|---7-6----------------------|
E--5-----8-7-8-|--|-5-----8-3---------4---|-5-----8--------------------|

e---------------|
B---------------|
G---------------|
D---------------|
A---8-7---------|
E-5-----8-7-6-5-| go into chorus:

Chorus:
Am        G              C      B
  I am in love with your daughter
Dm               Em    Am G
  And though she has no need
C         Em        Am       G
  I'm the one who's got some trotters
Dm            G         C   B
  You've many mouths to feed

Am        G              C      B
  I am in love with your daughter
Dm               Em    Am G
  And though she has no need
C         Em        Am       G
  I'm the one who's got some trotters
Dm            G         C
  You've many mouths to feed

C       G
  Indie   Cindy
Am                F
   Be in love with me
C          G     Am   F
 I beg for you to carry me


repeat last part three times and then last line two more times and end on C
comments
print report bad tab
4 comments total. Showing first comments.
0 reply
dpants1 wrote on January 16 2014, 04:47 am

Just wanna correct a lyric, i'm 90% sure that the pre chorus line is "I'm the one who's Got SUBTRACTORS, you've many mouths to feed." that is all.

0 reply
omera97 wrote on May 24 2014, 02:20 pm

amazing work

0 reply
omera97 wrote on May 24 2014, 02:20 pm

amazing tabs

I want to post or [tab]
guest
You may want to rate the tab now too:
select rating
Please do not post tabs as comments. Select "correction" instead!