Oops, an error
Loading. Please wait.

Is She Weird bass

version 3
version 3

Whole song

Interactive

by Pixies
1,669 views 1 this week
no commentswrite comment
1 2 3 4 5
2 more votes to show rating
add to favorites
×
Save as Personal and add changes to this tab that will be seen only by you. Learn more ›
×
You can save this tab as Personal to edit and correct it or add notes. All changes will be seen only by you. Learn more »
launch autoscroll
font size
0
reset
guitar tuner
backing track
0:00
0:00
edit
Autoscroll
slow
fast
+/-
esc
set tempo
stop
Author
Difficulty
Pixies - Is She Weird

Tabbed By Ryan M

This version is from the 'At The BBC' Album, Not from the Original 'Bossanova' Album.

This is how the verse goes
G|--------------------------------------------------------------------------------|
D|--------------------------------------------------------------------------------|
A|-----------------------------------------------------4-4-4-4--------------------|
E|-2-2-2-2-2-2-2-2-2-2-2-2-2-2-2--0-1-2-2-2-2--5-5-5-5---------0-0-0-0------------|

Instead of playing the fifth fret on the E String, Try playing Open A instead if it
feels more comfortable. It sounds better if you play it on the tab above but its easier
 to play it with the Open A.

G|-----------------------------------------------------------------------------|
D|-----------------------------------------------------------------------------|
A|-2-2-2-2-4-4-4-4-------------------------------------------------------------|
E|-----------------------------------------------------------------------------|

 x4

Chorus
Only Play The 0, 1, 2 at the beggining as you start the Chorus, Reapeat 3x through
 then play the part underneath when the vocals are "And The Head Has No Room"
G|------------------------------------------------------------------------------|
D|------------------------------------------------------------------------------|
A|----------------------------2-1-0-0---2-3-4-4------------0-1-2-1-2-3-4-4------|
E|-0-1-2-2-2-2-2-2---0-1-2-2----------------------2-1-0-0-----------------------|

x 3

G|-----------------------------------------------------------------------------|
D|-----------------------------------------------------------------------------|
A|-4-4-4--5-2------------------------------------------------------------------|
E|-----------------------------------------------------------------------------|

Verse x4

Bridge

G|-----------------------------------------------------------------------------|
D|-----------------------------------------------------------------------------|
A|-5-5-4-2-2-2-2-2-2-2-2-2-2-2-2-2-2-2-2---------------------------------------|
E|-----------------------------------------------------------------------------|

Chorus x3

Verse x3

Chorus x5

Lyrics to 'Is She Weird' by Pixies

I know you're rich in
Good clothes and little things
Your mind is fancy
(and your car is bitchin')

Is she weird
Is she weird, is she white
Is she promised to the night
And her head has no room
x3

And her head has no room

Your heart is ripshit
Your mouth is everywhere
I'm lyin' in it

Is she weird
Is she over me
Like the stars and the sun
Like the stars and the sun

Is she weird
Is she weird, is she white
Is she promised to the night
And her head has no room!
x3

And the head has no room!

No more of this girl cryin'
I'm here, your big man
You're mine

Is she weird, is she white
Is she promised to the night
And her head has no room!


If there is any other Bass Pixies tabs you would like please email me at marsr022@live.co.uk
and If I don't play it at the moment I will listen to it and tab it for you. I am 100%
of this tab.
Make sure you read it properly and you will get it quick. It's really simple when you
used to it.

            
            
Suggest correction
Creating personal tab
Creating personal tab
You can edit any tab online and save it as your Personal.

You can edit, replace or remove any tab part or add personal notes – all changes will be seen only by you.

Personal tabs can be accessed anytime from any device, even offline.
Learn more »
Give kudos to tab author, rate the tab!
1 2 3 4 5
comments
print report bad tab
guest
You may want to rate the tab now too:
select rating
Wanna post a correction for this tab? Suggest correction