Oops, an error
Loading. Please wait.

Might As Well Be Gone Bass Tab

version 1
version 1

Whole song

Interactive

13 views 1 this week
no commentswrite comment
1 2 3 4 5
3 more votes to show rating
add to favorites
launch autoscroll
font size
0
reset
guitar tuner
Autoscroll
slow
fast
+/-
esc
set tempo
stop
Help us to improve Ultimate-Guitar.com Take our survey!
×
[Intro]

G|---------------------------------------------------------------------------|
D|-------------------------------7-7-7-7-7-7-7-7-----------------------------|
A|-----------------------------------------------6-6-6-6---------------------|
E|-5-5-5-5-5-5-5-5-5-5-5-5-5-5-5-------------------------5-5-5-5-------------|

G|---------------------------------------------------------------------------|
D|-------------------------------7-7-7-7-7-7-7-7-----------------------------|
A|-----------------------------------------------6-6-6-6---------------------|
E|-5-5-5-5-5-5-5-5-5-5-5-5-5-5-5-------------------------5-5-5-5-------------|

[Verse]

G|---------------------------------------------------------------------------|
D|---------------------------------------------------------------------------|
A|-----------------4-4-4-4-4-4-4-4-3-3-3-3-3-3-3-3-3-6-6-6-6-----------------|
E|-5-5-5-5-5-5-5-5-------------------------------------------3-3-3-3---------|

G|---------------------------------------------------------------------------|
D|---------------------------------------------------------------------------|
A|-----------------4-4-4-4-4-4-4-4-3-3-3-3-3-3-3-3-3-6-6-6-6-----------------|
E|-5-5-5-5-5-5-5-5-------------------------------------------3-3-3-3---------|

[Chorus]

G|----------------------------------------------------------|
D|----------------------------------------------------------|
A|-3-3-3-3-3-3-3-3-2-2-2-2-2-2-----------------2-2-2-2------|
E|-----------------------------1-1-1-1-1-1-1-1--------------|

G|----------------------------------------------------------|
D|----------------------------------------------------------|
A|-3-3-3-3-3-3-3-3-2-2-2-2-2-2-----------------2-2-2-2------|
E|-----------------------------1-1-1-1-1-1-1-1--------------|

G|---------------------------------------------------------------------------|
D|---------------------------------------------------------------------------|
A|-----------------------------5-5-5-5-5-5-3-3-3-3-3-3-----------------------|
E|-5-5-5-5-5-5-5-5-5-5-5-5-5-5-----------------------------------------------|

[Verse]

G|---------------------------------------------------------------------------|
D|---------------------------------------------------------------------------|
A|-----------------4-4-4-4-4-4-4-4-3-3-3-3-3-3-3-3-3-6-6-6-6-----------------|
E|-5-5-5-5-5-5-5-5-------------------------------------------3-3-3-3---------|

G|---------------------------------------------------------------------------|
D|---------------------------------------------------------------------------|
A|-----------------4-4-4-4-4-4-4-4-3-3-3-3-3-3-3-3-3-6-6-6-6-----------------|
E|-5-5-5-5-5-5-5-5-------------------------------------------3-3-3-3---------|

[Chorus]

G|----------------------------------------------------------|
D|----------------------------------------------------------|
A|-3-3-3-3-3-3-3-3-2-2-2-2-2-2-----------------2-2-2-2------|
E|-----------------------------1-1-1-1-1-1-1-1--------------|

G|----------------------------------------------------------|
D|----------------------------------------------------------|
A|-3-3-3-3-3-3-3-3-2-2-2-2-2-2-----------------2-2-2-2------|
E|-----------------------------1-1-1-1-1-1-1-1--------------|

G|----------------------------------------------------------|
D|----------------------------------------------------------|
A|-3-3-3-3-3-3-3-3-2-2-2-2-2-2-----------------2-2-2-2------|
E|-----------------------------1-1-1-1-1-1-1-1--------------|

G|---------------------------------------------------------------------------|
D|---------------------------------------------------------------------------|
A|-----------------------------5-5-5-5-5-5-3-3-3-3-3-3-----------------------|
E|-5-5-5-5-5-5-5-5-5-5-5-5-5-5-----------------------------------------------|

BRIDGE

G|---------------------------------------------------------------------------|
D|-------------------------------7-7-7-7-7-7-7-7-----------------------------|
A|-----------------------------------------------6-6-6-6---------------------|
E|-5-5-5-5-5-5-5-5-5-5-5-5-5-5-5-------------------------5-5-5-5-------------|

G|---------------------------------------------------------------------------|
D|---------------------------------------------------------------------------|
A|-------------------2-2-2-2-2-2-2-3-3-3-3-3-3-3-3-6-6-6-6-------------------|
E|-5-5-5-5-5-5-5-5-5---------------------------------------3-3-3-3-----------|

[Outro]

G|----------------------------------------------------------|
D|----------------------------------------------------------|
A|-3-3-3-3-3-3-3-3-2-2-2-2-2-2-----------------2-2-2-2------|
E|-----------------------------1-1-1-1-1-1-1-1--------------|

G|----------------------------------------------------------|
D|----------------------------------------------------------|
A|-3-3-3-3-3-3-3-3-2-2-2-2-2-2-----------------2-2-2-2------|
E|-----------------------------1-1-1-1-1-1-1-1--------------|

G|----------------------------------------------------------|
D|----------------------------------------------------------|
A|-3-3-3-3-3-3-3-3-2-2-2-2-2-2-----------------2-2-2-2------|
E|-----------------------------1-1-1-1-1-1-1-1--------------|

G|----------------------------------------------------------|
D|----------------------------------------------------------|
A|-3-3-3-3-3-3-3-3-2-2-2-2-2-2-----------------2-2-2-2------|
E|-----------------------------1-1-1-1-1-1-1-1--------------|

G|---------------------------------------------------------------------------|
D|---------------------------------------------------------------------------|
A|-----------------------------5-5-5-5-5-5-3-3-3-3-3-3-----------------------|
E|-5-5-5-5-5-5-5-5-5-5-5-5-5-5-------------------------5---------------------|



Suggest correction
Give kudos to tab author, rate the tab!
1 2 3 4 5
comments
print report bad tab
guest
You may want to rate the tab now too:
select rating
Wanna post a correction for this tab? Suggest correction