Oops, an error
Loading. Please wait.

Mr Grieves bass

version 1
version 1

Whole song

Interactive

by Pixies
5,415 views 30 this week
2 commentsread comments
1 2 3 4 5
x 4
add to favorites
×
Save as Personal and add changes to this tab that will be seen only by you. Learn more ›
×
You can save this tab as Personal to edit and correct it or add notes. All changes will be seen only by you. Learn more »
launch autoscroll
font size
0
reset
guitar tuner
backing track
0:00
0:00
edit
Autoscroll
slow
fast
+/-
esc
set tempo
stop
Author
Difficulty
-------------------------------------------------------------------------------
			     MR. GRIEVES - PIXIES
-------------------------------------------------------------------------------

Tabbed By : Kadavreski

Tuning: Standard

Quick note: i use Xs to denote pauses; don't play dead notes.

The funny bit at the start during the "Hope everything is all riiiiight" bit... [0:29]

G|-12-12-11-11-10-10-9-------|
D|---------------------------|
A|---------------------------|
E|---------------------------|

Now when everyone else / Drums come in... [0:42]
G|---------------------------------------------------------|
D|---------------------------------------------------------|
A|-5-5-------------------5-2-2-2-2-------------------------|
E|-----0-0-0-2-3-3-3-2-3-----------2-2-2-2-3-3-3-3-0-0-0-0-|
Keep going (just follow the tab with the music)
G|---------------------------------------------------------------------------|
D|---------------------------------------------------------------------------|
A|-5-5-------------------5-2-2-----2-2-----2-2-----2-2-----2-2-----2-2-------|
E|-----0-0-0-2-3-3-3-2-3-------2-2-----2-2-----2-2-----2-2-----2-2-----2-2---|
Yeah, tiny little pause after that last 2 where the X is.
G|-----------------------------------------------------|
D|-----------------------------------------------------|
A|-2-2-----2-2-----2-2/5-4------------/2-0-------------|
E|-----2-2-----2-X---------2-2-2-2-3-3-----0-0-0-0-0-0-|

G|-----------------------------------------------------------------|
D|-----------------------------------------------------------------|
A|-5-5-0-0-----------------------5-2-2-2-2-------------------------|
E|---------0-0-0-2-3-3-3-3-3-2-3-----------2-2-2-2-3-3-3-3-0-0-0-0-|
The stretch of Xs is a pause with no bass. it's timed like the rest, so just follow the 
i guess?
G|---------------------------------------------------------------------------|
D|---------------------------------------------------------------------------|
A|-5-x-0-x-------------------------2-2-----2-2-----2-2-----2-2----2-2--------|
E|---------0-0-0-2-x-x-x-x-x-x-x-x-----2-2-----2-2-----2-2-----2-2----2-2----|
That last 2 is a biiig note. let it ring for a bit.
G|-------------------------------------------|
D|-------------------------------------------|
A|-2-2-----2-2-----2-2-----2-2-----2-2-------|
E|-----2-2-----2-2-----2-2-----2-2-----2-2-2-|
When the music resumes... [1:36 exactly] (this last bit is timed slightly differently; 
go with the groove, yeah?)
G|---------------------------------------------------------------------------|
D|---------------------------------------------------------------------------|
A|-----------------------------5-5-5-5-5-5-0-0-0-0-0-0-----------------------|
E|-3-3-3-3-3-3-0-0-0-0-0-0-0-0-------------------------0-0-0-0-0-0-0-0-2-3\--|
aaand we're back to where we started. this part is about half the speed of the rest! 
7 slide out is the very last note.
G|-------------------------------------|
D|-------------------------------------|
A|-2-2---------2-2---------2-2---------|
E|-----2-2-0-0-----2-2-0-0-----0-0-7\--|


| /  slide up
| \  slide down
| h  hammer-on
| p  pull-off
| ~  vibrato
| +  harmonic
| x  Mute note
===============================================================================

            
            
Suggest correction
Creating personal tab
Creating personal tab
You can edit any tab online and save it as your Personal.

You can edit, replace or remove any tab part or add personal notes – all changes will be seen only by you.

Personal tabs can be accessed anytime from any device, even offline.
Learn more »
comments
print report bad tab
2 comments total.
+1 reply
Jordo141 483 Apr 27, 2011 01:42 PM

Awful.

Certain parts too long; others too short....

0 reply
AvantNeoPunk 190 May 13, 2011 03:31 PM

i agree with the guy above but it sounds kinda close. The pacing and overall length of the tab is too short like he said.

guest
You may want to rate the tab now too:
select rating
Wanna post a correction for this tab? Suggest correction