Oops, an error
Loading. Please wait.

Velouria tab

version 1
version 1

Whole song

Interactive

by Pixies
33,328 views 57 this week
5 commentsread comments
1 2 3 4 5
x 10
add to favorites
×
Save as Personal and add changes to this tab that will be seen only by you. Learn more ›
×
You can save this tab as Personal to edit and correct it or add notes. All changes will be seen only by you. Learn more »
launch autoscroll
font size
0
reset
how to read this tab
guitar tuner
backing track
0:00
0:00
edit
Autoscroll
slow
fast
+/-
esc
set tempo
stop
Author
Unregistered
Tuning: Standard eADGBE

[Intro]
e|-----------------------------------|
B|-----------------------------------|
G|-----------------3-3-3-4-4-4-------|
D|----3-3-3-4-4-4--3-3-3-4-4-4-------|
A|----3-3-3-4-4-4--1-1-1-2-2-2-------|
E|----1-1-1-2-2-2--------------------|

e|--------------------------------------------------------------|
B|----7-7-6-6-4-2-2----7-6-6-4-4----7-7-6-6-4-2-2----7-6-6-4-4--|
G|--------------------------------------------------------------|
D|--------------------------------------------------------------|
A|--------------------------------------------------------------|
E|--------------------------------------------------------------|

e|---------------------|
B|----7-8-9-10-11------|
G|---------------------|
D|---------------------|
A|---------------------|

[Verse]
e|--------------------------------------------x-2-2-2---|
B|------6---4----6---4----6----4-----7---4----x-2-2-2---|
G|----6---6----6---6----6---6--4---6---6-4----x-3-3-3---|
D|-----------------------------4---------4----x-4-4-4---|
A|-----------------------------2---------2----x-4-4-4---|
E|--------------------------------------------x-2-2-2---|

Bb      D#
Velouria
         B
Her covering
 F#          Bb
Travelling career
 F#             D#
She can really move
B       F#
Oh velveteen

[Chorus]
F     F#     Bb   B
My Velouria, my Velouria
 F         F#
Even I'll adore ya
B     Bb
My Velouria

[Verse]
Bb        D#
Say to me
                B
Where have you been
 F#                  Bb   F#
Finally through the roof
    D#              B
And how does lemur skin
            F#
Reflect the sea?
B
We will wade in the shine of the ever
B
We will wade in the shine of the ever
B
We will wade in the tides of the summer
 B                           D
Every summer, every summer, every,
F#    F
My Velouria
Bb    B
My Velouria

e|--------------------------------------------------------------|
B|----7-7-6-6-4-2-2----7-6-6-4-4----7-7-6-6-4-2-2----7-6-6-4-4--|
G|--------------------------------------------------------------|
D|--------------------------------------------------------------|
A|--------------------------------------------------------------|
E|--------------------------------------------------------------|

e|---------------------|
B|----7-8-9-10-11------|
G|---------------------|
D|---------------------|
A|---------------------|

Forevergreen

I know she's here
   F#      Bb
In California
F#             D#    B
I can see the tears
    F#
Of shastasheen

F    F#      Bb    B
My Velouria, my Velouria
F           F#
Even I'll adore ya
Bb    B
My Velouria


************************************

| x  Dead note

************************************

            
            
Suggest correction
Creating personal tab
Creating personal tab
You can edit any tab online and save it as your Personal.

You can edit, replace or remove any tab part or add personal notes – all changes will be seen only by you.

Personal tabs can be accessed anytime from any device, even offline.
Learn more »
comments
print report bad tab
5 comments total. Showing first comments.
0 reply
oglockwood 10 Jul 01, 2008 07:52 PM

i think that riff should be:
B|-----7-7-6-6-4-4--2-2-----7-6-6-4-4----7-6-6-4-4--2-2----7-6-6-4-4--

0 reply
oglockwood 10 Jul 01, 2008 08:30 PM

ok there's actually only one 7 in the beginning so ignore the first one and its correct

0 reply
Lilith_Of_Lust 30 Apr 05, 2010 07:13 PM

all is okay except you have the verse's lyrics wrong..

"hold my head
we'll trampoline
finally through the roof
on to somewhere near
and far in time
velouria
her covering
travelling career
she can really move
oh velveteen!"

guest
Wanna post a correction for this tab? Suggest correction