Oops, an error
Loading. Please wait.

Where Is My Mind Ukulele Chords

version 1
version 1

Whole song

5,711 views 27 this week
1 commentread comment
1 2 3 4 5
accurate
x 6
add to favorites
launch autoscroll
font size
0
reset
transpose
0
reset
- display chords -
guitar tuner
Tab Pro tools
  • play this tab
  • loop segment
  • change instrument
  • show fretboard
  • metronome
×
Best way to learn
"Where Is My Mind"
Autoscroll
slow
fast
+/-
esc
set tempo
stop
[INTRO]
 
  E  C#m  G#  A (4x)
     
  lead
E|-----4-----4-|----4-----4-|-----4-----4-|-0--0----0--
B|--5-----5----|-5-----5----|--4-----4----|-5--5p4--5--
G|-------------|------------|-------------|------------
D|-------------|------------|-------------|------------
A|-------------|------------|-------------|------------
E|-------------|------------|-------------|------------


[VERSE 1]
           E                        C#m               G#  A
 With your feet in the air and your head on the ground
E    C#m            G#       A         
 Try this trick and spin it, yeah
E                  C#m
 Your head will collapse
            G#
But there's nothing in it 
           A
And you'll ask yourself


[CHORUS]
E            C#m 
 Where is my mind?
G#           A
 Where is my mind?  
     E       C#m   G#  A       
 Where is my mind?

E  C#m  G#  A 

 E   G#         A             Am        C#m   B
 Way out in the water, see it swimming.

[VERSE 2] - (E  C#m  G#  A) 
I was swimmin' in the Carribean
Animals were hiding behind the rock
Except the little fish
But they told me, he swears
Tryin' to talk to me, to me, to me

-CHORUS-


E|-------------------------------|-------------------------10--12--14^-
B|--7---7---7--7-----------------|--------7--7\10--10--12--------------
G|--9^--9^--------9--7--7--7-----|--7--9-------------------bend last---
D|----------------------------9--|------------------------ note a few--
A|-------------------------------|-------------------------times-------
E|-------------------------------|-------------------------------------
   ^ = bend
   r = release bend
   \ = slide
  
-VERSE 1-

-CHORUS-

(just repeat E  C#m  G#  A until the end)
comments
print report bad tab
1 comment total.
0 reply
naterz wrote on January 7 2016, 06:09 pm

The lead can be done on ukulele as well

A|------------------------------------
E|-1---1---1---1---0---0---1--1p0-1---
C|------------------------------------
G|---2---2---2---2---2---2------------

I want to post or [tab]
guest
You may want to rate the tab now too:
select rating
Please do not post tabs as comments. Select "correction" instead!