Oops, an error
Loading. Please wait.
We have an official Where Is My Mind tab made by UG professional guitarists. Check out the tab »
×

Where Is My Mind Tab

version 3
version 3

Whole song

Video

  • Detailed breakdown of chords, intro and guitar sol... Show more
11,679 views 813 this week
1 commentread comment
1 2 3 4 5
x 6
add to favorites
launch autoscroll
font size
0
reset
how to read this tab
guitar tuner
backing track
0:00
0:00
×
Best way to learn
"Where Is My Mind"
Autoscroll
slow
fast
+/-
esc
set tempo
stop
Pixies - Where is my Mind?

Ahhhhh

Stop.

[INTRO]

  E  C#m  G#  A (4x)

  lead
E|-----4-----4-|----4-----4-|-----4-----4-|-0--0----0--|
B|--5-----5----|-5-----5----|--4-----4----|-5--5p4--5--|
G|-------------|------------|-------------|------------|
D|-------------|------------|-------------|------------|
A|-------------|------------|-------------|------------|
E|-------------|------------|-------------|------------|


[VERSE 1]
           E                        C#m               G#  A
 With your feet in the air and your head on the ground
E    C#m            G#       A
 Try this trick and spin it, yeah
E                  C#m
 Your head will collapse
            G#
But there's nothing in it
           A
And you'll ask yourself


[CHORUS]
E            C#m
 Where is my mind?
G#           A
 Where is my mind?
     E       C#m   G#  A
 Where is my mind?

E  C#m  G#  A

 E   G#         A             Am        C#m   B
 Way out in the water, see it swimming.

[VERSE 2] - (E  C#m  G#  A)
I was swimmin' in the Carribean
Animals were hiding behind the rock
Except the little fish
But they told me, he swears
Tryin' to talk to me, to me, to me

-CHORUS-

[SOLO] - play B over it (there are actually two guitars playing the solo
         but I just tabbed one cuz they are kinda similar)

E|-------------------------------|-------------------------10--12--14^-|
B|--7---7---7--7-----------------|--------7--7\10--10--12--------------|
G|--9^--9^--------9--7--7--7-----|--7--9-------------------bend last---|
D|----------------------------9--|------------------------ note a few--|
A|-------------------------------|-------------------------times-------|
E|-------------------------------|-------------------------------------|
   ^ = bend
   r = release bend
   \ = slide

-VERSE 1-

-CHORUS-

(just repeat E  C#m  G#  A until the end)

With your feet in the air and your head on the ground
Try this trick and spin it, yeah
Suggest correction
comments
print report bad tab
1 comment total.
-2 reply
Flexo 367 Feb 14, 2015 11:19 AM

I think the main riff is like that :

E|----4-----4--|----4-----4--|----4-----4--|-0-0-0-0-0-0-0-0-|
B|-5-----5-----|-5-----5-----|-4-----4-----|-5-5-5-4-5-5-5-4-|
G|-------------|-------------|-------------|-----------------|
D|-------------|-------------|-------------|-----------------|
A|-------------|-------------|-------------|-----------------|
E|-------------|-------------|-------------|-----------------|

guest
You may want to rate the tab now too:
select rating
Wanna post a correction for this tab? Suggest correction