Oops, an error
Loading. Please wait.
We have an official Where Is My Mind tab made by UG professional guitarists. Check out the tab »
×

Where Is My Mind tab

version 5
version 5

Whole song

Video

  • Detailed breakdown of chords, intro and guitar sol... Show more
by Pixies
2,734 views 3 this week
no commentswrite comment
1 2 3 4 5
1 last vote to show rating
add to favorites
×
Save as Personal and add changes to this tab that will be seen only by you. Learn more ›
×
You can save this tab as Personal to edit and correct it or add notes. All changes will be seen only by you. Learn more »
launch autoscroll
font size
0
reset
how to read this tab
guitar tuner
backing track
0:00
0:00
edit
Autoscroll
slow
fast
+/-
esc
set tempo
stop
Author
About this tab version
Lately I have been looking to learn the solo for this song, but none of the tablatures found on Ultimate Guitar were satisfying (and even less the one that I bought on Sheet Music Direct). The difficulty is that there are two guitars playing two slightly different things. So I listened and relistened to it by turning the volume balance to the left and to the right to isolate the channels and I tabbed what I found. Also I didn't think that anyone had the main electric guitar riff correct, so while I was at it I decided to tab the whole thing. Was this info helpful? Yes No
Where Is My Mind? - Pixies


Intro, verse and chorus (acoustic guitar)
   E              C#m            Ab            A           E
E|--------------|--------------|-------------|-----------------|
B|-------0------|-------5------|-------4-----|-5-5-5-5-5-5-----|
G|-1-----1--1-0-|-6-----6--6-4-|-5-----5--4--|-6-6-6-6-6-6-1-1-|
D|-2-----2--2-0-|-6-----6--6-4-|-6-----6--4--|-7-7-7-5-7-7-2-2-|
A|-2--2--2--2---|-4--4--4--4---|-6--6--6--4--|-7-7-7-5-7-7-2-2-|
E|-0--0--0--0---|-4--4--4--4---|-4--4--4--4--|-5-5-5-5-5-5-0-0-|


Main riff (electric guitar)
   E             C#m           Ab            A
E|----4-----4--|----4-----4--|----4-----4--|-0-0-0-0-0-0-0-0-|
B|-5-----5-----|-5-----5-----|-4-----4-----|-5-5-5-4-5-5-5-4-|
G|-------------|-------------|-------------|-----------------|
D|-------------|-------------|-------------|-----------------|
A|-------------|-------------|-------------|-----------------|
E|-------------|-------------|-------------|-----------------|


Chorus part 2 (electric guitar)
   E             C#m           Ab            A
E|-------------|-------------|-------------|-------------|
B|-------------|-------------|-------------|-------------|
G|-------------|-6-----------|-------------|-------------|
D|-2-----------|-6-----------|-6-----------|-7-----------|
A|-2-----------|-4-----------|-6-----------|-7-----------|
E|-0-----------|-------------|-4-----------|-5-----------|


Post-chorus ("Way out in the water...")  (acoustic guitar)
   E              Ab             A              Am           C#m
E|--------------|--------------|--------------|------------|--------------|
B|-------0------|-------4------|-------5------|-------5----|-5------------|
G|-1--1--1--1-0-|-5--5--5--5-X-|-6--6--6--6-6-|-5--5--5----|-6------------|
D|-2--2--2--2-0-|-6--6--6--6-X-|-7--7--7--7-7-|-7--7--7--0-|-6------------|
A|-2--2--2--2---|-6--6--6--6---|-7--7--7--7-7-|-7--7--7--0-|-4------------|
E|-0--0--0--0---|-4--4--4--4---|-5--5--5--5---|-5--5--5----|-4------------|
   B
E|---------------------------------|
B|-------4--4-4--4-4-4-4-4-4-4-4-X-|
G|-4--4--4--4-4--4-4-4-4-4-4-4-4-X-|
D|-4--4--4--4-4--4-4-4-4-4-4-4-4-X-|
A|-2--2--2--2-2--2-2-2-2-2-2-2-2-X-|
E|---------------------------------|

(electric guitar)
   E              Ab             A              Am           C#m
E|--------------|--------------|--------------|------------|----------------|
B|--------------|--------------|--------------|------------|----------------|
G|--------------|--------------|-------6--6-6-|-------5----|-6--------------|
D|-------2------|-------6------|-------7--7-7-|-7--7--7----|-6--------------|
A|-2--2--2--2-0-|-6--6--6--6-X-|-7--7--7--7-7-|-7--7--7--0-|-4--------------|
E|-0--0--0--0-0-|-4--4--4--4-X-|-5--5--5--5-5-|-5--5--5--0-|----------------|
   PM--|    PM--------|    PM--------|
   B
E|---------------------------------|
B|---------------------------------|
G|-------4--4-4--4-4-4-4-4-4-4-4-X-|
D|-4--4--4--4-4--4-4-4-4-4-4-4-4-X-|
A|-2--2--2--2-2--2-2-2-2-2-2-2-2-X-|
E|---------------------------------|


Solo  (the acoustic guitar is strumming a B)

Electric guitar 1 (right channel)
   1    2    3       4      1     2      3           4      1     2     3     4
E|---------------------------------------------------10-12--14b---14b---14b-------|
B|-7b---7b---7-7------------------7--10--10-12-12-12------------------------------|
G|-9b---9b-------9-7-7-7----7--9--------------------------------------------------|
D|-----------------------9--------------------------------------------------------|
A|--------------------------------------------------------------------------------|
E|--------------------------------------------------------------------------------|

Electric guitar 2 (left channel)
   1    2    3       4      1   2     3      4          1     2     3     4
E|------------------------------------------------------10b---13b---14b---14b---|
B|-7b---7b---7-7-----------------------------7-10-10-12-------------------------|
G|-9b---9b-------9-7-7-7----7---9--7-----7-9------------------------------------|
D|-----------------------9------------9-----------------------------------------|
A|------------------------------------------------------------------------------|
E|------------------------------------------------------------------------------|


The end (acoustic guitar)
   E              C#m            Ab
E|--------------|--------------|-------------|
B|-------0------|-------5------|-------------|
G|-1-----1--1-0-|-6-----6--6-4-|-5--5--------|
D|-2-----2--2-0-|-6-----6--6-4-|-6--6--------|
A|-2--2--2--2---|-4--4--4--4---|-6--6--------|
E|-0--0--0--0---|-4--4--4--4---|-4--4--------|

(electric guitar)
   E             C#m           Ab
E|----4-----4--|----4-----4--|----4-----|
B|-5-----5-----|-5-----5-----|-4--------|
G|-------------|-------------|----------|
D|-------------|-------------|----------|
A|-------------|-------------|----------|
E|-------------|-------------|----------|


Song's structure:

Intro         - only acoustic guitar  x 2
              - then main riff on electric guitar enters  x 2
Verse 1       - acoustic/electric main riff  x 3        ("With you feet on the air...")
Chorus part 1 - only acoustic guitar  x 2               ("Where is my mind?")
Chorus part 2 - acoustic/electric
Post-chorus                                             ("Way out in the water...")
Verse 2       - acoustic/electric main riff  x 3        ("I was swimming...")
Chorus part 1 - only acoustic guitar  x 2               ("Where is my mind?")
Chorus part 2 - acoustic/electric
Post-chorus                                             ("Way out in the water...")
Solo
Verse 3       - acoustic/electric main riff  x 3        ("With you feet on the air...")
Chorus part 1 - only acoustic guitar  x 2               ("Where is my mind?")
Chorus part 2 - acoustic/electric
Post-chorus                                             ("Way out in the water...")
Verse 4       - acoustic/electric main riff x 6         ("Ouhoo...")
                then the end
Suggest correction
Creating personal tab
Creating personal tab
You can edit any tab online and save it as your Personal.

You can edit, replace or remove any tab part or add personal notes – all changes will be seen only by you.

Personal tabs can be accessed anytime from any device, even offline.
Learn more »
Give kudos to tab author, rate the tab!
1 2 3 4 5
comments
print report bad tab
guest
You may want to rate the tab now too:
select rating
Wanna post a correction for this tab? Suggest correction