Oops, an error
Loading. Please wait.

30 Tab

1,498 views 1 this week
1 commentread comment
1 2 3 4 5
please rate
add to favorites
launch autoscroll
font size
0
reset
how to read this tab
guitar tuner
Autoscroll
slow
fast
+/-
esc
set tempo
stop
Help us to improve Ultimate-Guitar.com Take our survey!
×
30 - PJ Harvey
--------------
It's a b-side of the single GOOD FORTUNE CDS 2

20/05/02 22:55 milan
transcribed by Elena Capolongo (elena.koki@libero.it or matteo.capolongo@fastwebnet.it)

this is the tab of the version played at Olympia (paris) on 26/02/01. 
I think it's ok for the album's version too, but I don't know because I haven't 
listened to it yet. I'm sorry for my errors, but it is the first tab I write... >:)
if you have some others pj harvey's tab send me an email! Bye...


  [riff 1]
e|---------------------------------------------------------------------------|
B|---------------------------------------------------------------------------|
G|---------------------------------------------------------------------------|
D|--5-5-5-5--8-8-8-8-8-8-8-8--13-13-13-13--12-12-12-12-12-12-12-12--5etc-----|
A|--5-5-5-5--8-8-8-8-8-8-8-8--13-13-13-13--12-12-12-12-12-12-12-12--5etc-----|
E|--3-3-3-3--6-6-6-6-6-6-6-6--11-11-11-11--10-10-10-10-10-10-10-10--3etc-----|


 [riff 2]
e|-----------------------------------------|      
B|-----------------------------------------|
G|-----------------------------------------| x 2  
D|--11-11-11-11--10-10-10-10-10-10-10-10---|     
A|--11-11-11-11--10-10-10-10-10-10-10-10---|
E|--13-13-13-13--12-12-12-12-12-12-12-12---|


e|-----------------------------------------|
B|-----------------------------------------|
G|-----------------------------------------| x 2
D|--10-10-10-10--8-8-8-8-8-8-8-8-----------|
A|--10-10-10-10--8-8-8-8-8-8-8-8-----------|
E|---8--8--8--8--6-6-6-6-6-6-6-6-----------|


Lyrics :

[riff 1] ---> play it 4 times
Over my body the shadows played           
it wasn't night and it wasn't day              
Counting something what have I found   
30 diamonds in my hand

[riff 2] ---> play it 1 time
30 miles
A world unfolds
30 miles
A pot of gold

[riff 1] ---> play it 4 times
I often think of America
I often dream of shooting a gun
30 years I'm still a child
Looking for something in a smile

[riff 2] ---> play it 2 time
30 miles
A world unfolds
30 miles
A pot of gold
Listen here
in my song
30 miles
won't be long

[riff 1] ---> play it 4 times 

[riff 1] ---> play it 6 times
30 diamonds Birds of fire
Sparkle like the summer sky
30 diamonds 30 miles
Looking for something in your smile
I'm looking for something in your smile
I'm looking for something 

[riff 1] ---> until the end

end with Gm [355xxx]
Suggest correction
What's this?
You can suggest a correction to this tab. Community and Mods will review your correction and vote to approve or reject it.
comments
We did not receive enough feedback on this tab! Please rate:
print report bad tab
1 2 3 4 5
1 comment total.
0 reply
The Heritage 12 wrote on September 1 2002, 12:00 am

30 - PJ Harvey
--------------
> It's a b-side of the single GOOD FORTUNE CDS 2

> this is the tab of the version played at Olympia (paris) on 26/02/01.
> I think it's ok for the album's version too, but I don't know because I haven't
> listened to it yet. I'm sorry for my errors, but it is the first tab I write... >:)

thank you. Here is another tab from the CD


[riff 1]
e|---------------------------------------------------------------------------|
B|---------------------------------------------------------------------------|
G|---------------------------------------------------------------------------|
D|--5-5-5--8-8-8-8-8--13-13-13--8-8-8-8-8--5-5-5--5-5-5-5-5--5-5-5--5-5-5-5-5|
A|--5-5-5--8-8-8-8-8--13-13-13--8-8-8-8-8--5-5-5--5-5-5-5-5--5-5-5--5-5-5-5-5|
E|--3-3-3--6-6-6-6-6--11-11-11--6-6-6-6-6--3-3-3--3-3-3-3-3--3-3-3--3-3-3-3-3|


[riff 2]
e|-------------------------------|
B|-------------------------------|
G|-------------------------------| x 2
D|--13-13-13---12-12-12-12-12----|
A|--13-13-13---12-12-12-12-12----|
E|--11-11-11---10-10-10-10-10----|


e|-------------------------------|
B|-------------------------------|
G|-------------------------------| x 2
D|--10-10-10---8-8-8-8-8---------|
A|--10-10-10---8-8-8-8-8---------|
E|---8--8--8---6-6-6-6-6---------|


[riff 3]

e|-------------------------------|
B|-------------------------------|
G|-------------------------------| x 2
D|--10-10-10---8-8-8-8-8---------|
A|--10-10-10---8-8-8-8-8---------|
E|---8--8--8---6-6-6-6-6---------|

e|-------------------------------|
B|-------------------------------|
G|-------------------------------| x 2
D|--13-13-13---12-12-12-12-12----|
A|--13-13-13---12-12-12-12-12----|
E|--11-11-11---10-10-10-10-10----|



Lyrics :

[riff 1] ---> play it 4 times
Over my body the shadows played
it wasn't night and it wasn't day
Counting something what have I found
30 diamonds in my hand

[riff 2] ---> play it 1 time
30 miles
A world unfolds
30 miles
A pot of gold

[riff 1] ---> play it 4 times
I often think of America
I often dream of shooting a gun
30 years I'm still a child
Looking for something in a smile

[riff 3] ---> play it 2 time
30 miles
A world unfolds
30 miles
A pot of gold
Listen here
in my song
30 miles
won't be long

[riff 1] ---> play it 4 times

[riff 1] ---> play it 6 times
30 diamonds Birds of fire
Sparkle like the summer sky
30 diamonds 30 miles
Looking for something in your smile
I'm looking for something in your smile
I'm looking for something

[riff 1] ---> until the end

end with G(m) [355xxx]

guest
You may want to rate the tab now too:
select rating
Please do not post tabs as comments. Select "correction" instead!