Oops, an error
Loading. Please wait.

50Ft Queenie Tab

6,948 views 9 this week
no commentswrite comment
1 2 3 4 5
3 more votes to show rating
add to favorites
launch autoscroll
font size
0
reset
how to read this tab
guitar tuner
Autoscroll
slow
fast
+/-
esc
set tempo
stop
Help us to improve Ultimate-Guitar.com Take our survey!
×
Author
Difficulty
50ft Queenie
by Pj Harvey on rid of me
Tuning DADGBE


P.m.- Palm Mute
3h - hammer on
3p- pull off

E-----------------------------------------------------------------|
B-----------------------------------------------------------------|
G-----------------------------------------------------------------|
D-----------------------------------------------------5-5-5-5-5-5-|
A-----------------------------------------------------5-5-5-5-5-5-|
D----3-0-0-0-0-0-0-3-0-0-0-0-0-0-3-0-0-0-0-0-0----3-0-5-5-5-5-5-5-|
Main Riff

She starts with P.M., but then just does it open....


Chorus
E-----------------------------     E--------|
B-----------------------------     B--------|
G-----------------------------     G--------|
D-----10/-12-12-12-12-12------     D---3----|
A-----10/-12-12-12-12-12------     A---3----|bend
D-----10/-12-12-12-12-12------x3   D---3----|
Play this three times before you hit the 3, and bend it.


lil' solo


E-----13-13-13-13-13--|
B-----15-15-15-15-15--| BEND LIKE HELL
G---------------------|
D---------------------|
A---------------------|
D---------------------|


CHORUS

E-----------------------      E----------------|
B----------------------       B----------------|
G----------------------       G----------------|
D---10/-12-12-12-12-12-       D-----3/---8-8-8-|
A---10/-12-12-12-12-12-       A-----3/---8-8-8-|
D---10/-12-12-12-12-12-X 3    D-----3/---8-8-8-|

She add's one more note at the second and third chorus
Suggest correction
Give kudos to tab author, rate the tab!
1 2 3 4 5
comments
print report bad tab
guest
You may want to rate the tab now too:
select rating
Wanna post a correction for this tab? Suggest correction