Oops, an error
Loading. Please wait.

Hook Tab

1,035 views 3 this week
no commentswrite comment
1 2 3 4 5
3 more votes to show rating
add to favorites
launch autoscroll
font size
0
reset
how to read this tab
guitar tuner
Autoscroll
slow
fast
+/-
esc
set tempo
stop
Help us to improve Ultimate-Guitar.com Take our survey!
×
Author
Difficulty
Tuning
novice
D A D G B E
---------------------------------------------------------------------
                          HOOK : PJ Harvey
---------------------------------------------------------------------
Tabbed by: lifer
Email: paranoid_toaster@hotmail.com

Tuning: Drop D

Main Riff
E|-------------------------------------------------------------------|
B|-------------------------------------------------------------------|
G|----2b-2b---------0-0----------------------------------------------|
D|-------------3b-0-3-3b-0-------------------------------------------|
A|---------0-2----0--------------------------------------------------|
D|-------------------------------------------------------------------|

Chorus
E|-------------------------------------------------------------------|
B|-------------------------------------------------------------------|
G|---5-5-5-----------------------------------------------------------|
D|---5-5-5-0---------------------------------------------------------|
A|---3-3-3-0---------------------------------------------------------|
D|---------0---------------------------------------------------------|

Bridge
E|--------------------------------------------------------------------|
B|--------------------------------------------------------------------|
G|---2-2-2br----------------------------------------------------------|
D|---------------3-3b-0-----------------------------------------------|
A|-----------2-0------------------------------------------------------|
D|--------------------------------------------------------------------|

************************************

| /   slide up
| \   slide down
| h   hammer-on
| p   pull-off
| ~   vibrato
| +   harmonic
| x   Mute note
| b   Bend
| pb  Pre-bend
| br  Bend release
| pbr Pre-bend release
| brb Bend release bend

************************************
Suggest correction
Give kudos to tab author, rate the tab!
1 2 3 4 5
comments
print report bad tab
guest
You may want to rate the tab now too:
select rating
Wanna post a correction for this tab? Suggest correction