Oops, an error
Loading. Please wait.

Its You Tab

3,749 views 1 this week
no commentswrite comment
1 2 3 4 5
please rate
add to favorites
launch autoscroll
font size
0
reset
how to read this tab
guitar tuner
Autoscroll
slow
fast
+/-
esc
set tempo
stop
Help us to improve Ultimate-Guitar.com Take our survey!
×
Author
Difficulty
novice
Artist - Pj Harvey
Song - It's You
Album - Uh Huh Her
Tabbed By Nirvanapt
Tuning: Down A Whole Step And Drop C: C G C F A D

Chords used:

E (444xxx)
D (222xxx)
C (000xxx)
G (777xxx)
A (999xxx)
A# (10,10,10,x,x,x)

Intro:

-----------------------------------------------------------------------------|
-----------------------------------------------------------------------------|
----18----18----18--------17--------16--------14--------13-------14------13--|
-16----16----16----16--15----15--14----14--12----12--11----11--12---12-11----|
-----------------------------------------------------------------------------|
-----------------------------------------------------------------------------|

-----------------------------------------------------------------------------|
-----------------------------------------------------------------------------|
----18----18----18--------17--------16--------14--------13-------14------13--|
-16----16----16----16--15----15--14----14--12----12--11----11--12---12-11----|
-----------------------------------------------------------------------------|
-----------------------------------------------------------------------------|

-----------------------------------------------------------------------------|
-----------------------------------------------------------------------------|
----18----18----18--------16----16----16--------14-------13-------14------13-|
-16----16----16----16--14----14----14----14--12----12--11---11--12---12-11---|
-----------------------------------------------------------------------------|
-----------------------------------------------------------------------------|

-----------------------------------------------------------------------------|
-----------------------------------------------------------------------------|
----18----18----18--------17--------16--------14--------13-------14------13--|
-16----16----16----16--15----15--14----14--12----12--11----11--12---12-11----|
-----------------------------------------------------------------------------|
-----------------------------------------------------------------------------|


Verse 1:

E      D                 E
     Oh dear sweet mama
        D             E
I'm not feeling well
D               E
Can I step out
	 C              E
For a little while?
    D             E
But I go missing
    D         E
I steal away
    D             E
And I go kissing
       C         E
In the alleyway

Chorus:

G     A        E
All I want to do
    G             A#          E
And all I want to grow up to be
    G         A         E
Is all caught up with you
 G                A#        E
Look what you're doing to me

D E D E

Verse 2:

    D              E
Oh dearest young man
      D           E
Teach me sweetheart
D              E
How to love you
      C         E
I'm a clever girl
       D           E
You've got me lying
              D            E
You've got me leaving home
       D             E
You've got me crying
     C         E
When I'm alone

Chorus:

G     A        E
All I want to do
    G             A#          E
And all I want to grow up to be
    G         A         E
Is all caught up with you
 G                A#
Look what you're doing to me

Interlude:
In this part you have to repeat the intro:

When I'm not with you my dreams are so very dark
When I'm not with you I dream of my hair falling out
When I'm not with you I walk dark tunnels of my heart
					      E
When I'm not with you everything just comes apart

D E D E

Verse 3:

     D            E
When I was younger
   D           E
I spent my days
D                E
Wondering to whom
       D               E
I was supposed to pray


     D    E
It's you?
     D    E
It's you?
     D    E
It's you?
     C
It's you?


This is my first tab so I hope you like it.
Comments, corrections... kurdt_donald_kubain@hotmail.com
Suggest correction
Give kudos to tab author, rate the tab!
1 2 3 4 5
comments
print report bad tab
guest
You may want to rate the tab now too:
select rating
Please do not post tabs as comments. Select "correction" instead!