Oops, an error
Loading. Please wait.

Man-Sized Chords

version 3
version 3

Whole song

5,164 views 9 this week
no commentswrite comment
1 2 3 4 5
please rate
add to favorites
launch autoscroll
font size
0
reset
transpose
0
reset
simplify chords
display chords
guitar tuner
Autoscroll
slow
fast
+/-
esc
set tempo
stop
Help us to improve Ultimate-Guitar.com Take our survey!
×
Artist: P.J.Harvey
Song: Man-Size
Album: Rid Of Me

Riff 1 (Played palm-muted):

     G5                    F5          A5
E|------------------------------------------------------|
B|------------------------------------------------------|
G|------------------------------------------------------|
D|---5-5--5-5-5-5-5--5-5-5-3-3-3-3-3-3-2-2-0------------|
A|---5-5--5-5-5-5-5--5-5-5-3-3-3-3-3-3-0-0-0------------|
E|---3-3--3-3-0-3-3--3-3-0-1-1-0-1-1-0------------------|

Riff 2:

     G5                    F5            A#5
E|------------------------------------------------------|
B|------------------------------------------------------|
G|------------------------------------------------------|
D|---5-5--5-5-5-5-5--5-5-5-3-3-3-3-3-3-/-8-8-8----------|
A|---5-5--5-5-5-5-5--5-5-5-3-3-3-3-3-3-/-8-8-8----------|
E|---3-3--3-3-0-3-3--3-3-0-1-1-0-1-1-0-/-6-6-6----------|

              G5        F5           A5
I'm coming up man-sized skinned alive
G5                 F5        A5
I want to fit I've got to get
G5            F5        A5
Man-sized I'm heading on
G5                      F5      A5
Handsome got my leather boots on
G5                         F5
Got my girl and she's a wow
               A#5
I cast my iron knickers down
G5                        F5
Man-sized no need to shout
                     A#5
Can you hear can you hear me now
G5            F5 A#5
I'm man-sized
G5        F5 A#5
Man-sized

G5 F5 A#5 X 2

G5                F5                 A5
I'll measure time I'll measure height
G5                F5        A5
I'll calculate my birthright
G5                F5            A5
Good Lord I'm big I'm heading on
G5                       F5      A5
Man-sized got my leather boots on
G5                         F5
Got my girl and she's a wow
               A#5
I cast my iron knickers down
G5                        F5
Man-sized no need to shout
                     A#5
Can you hear can you hear me now
G5                           F5
My babe looking cool and neat
                     A#5
I'm pretty sure good enough to eat
G5                            F5
I'm man-sized no need to shout
                  A#5
Let it all let it all hang out
G5
I'm man-size, man-size
F5        A#5
Man-size, man-size
G5
Man-size, man-size
F5        A#5
Man-size, man- size

G5 F5 A5 X 4

G5                  F5
Silence my lady head
(slide up the fretboard)
Get girl out of my head
Douse hair with gasoline
Set it light and set it free 

Enjoy, Vaggs ;)
Suggest correction
Give kudos to tab author, rate the tab!
1 2 3 4 5
comments
print report bad tab
guest
You may want to rate the tab now too:
select rating
Wanna post a correction for this tab? Suggest correction