Oops, an error
Loading. Please wait.

Me Tab

610 views 3 this week
no commentswrite comment
1 2 3 4 5
please rate
add to favorites
launch autoscroll
font size
0
reset
how to read this tab
guitar tuner
Tab Pro tools
  • play this tab
  • loop segment
  • change instrument
  • show fretboard
  • metronome
×
Best way to learn
"Me"
Autoscroll
slow
fast
+/-
esc
set tempo
stop
Contributor
Difficulty
novice
---------------------------------------------------------------------
                        ME-JANE : PJ Harvey
---------------------------------------------------------------------
Tabbed by: lifer
Email: paranoid_toaster@hotmail.com

Tuning: standard

Intro
e|--------------------------------------------------------------------|
B|--------------------------------------------------------------------|
G|--------------------------------------------------------------------|
D|--------------------------------------------------------------------|
A|--2-2----2-2--------------------------------------------------------|
E|--0-0-3b-0-0-3b-3b--------------------------------------------------|
Pm |------------------------------------------------------------------|

Verse 1
e|-------------------------------------------------------------------|
B|-------------------------------------------------------------------|
G|-------------------------------------------------------------------|
D|-------------------------------------------------------------------|
A|--2-2----2-2--------2-2----2-2-------------------------------------|
E|--0-0-3b-0-0-3b-3b--0-0-3b-0-0-3b-3b-------------------------------|

Chorus               Last time
e|------------------|------------------------------------------------|
B|------------------|------------------------------------------------|
G|--7-7-------------|--7-7-------------------------------------------|
D|--7-7-------------|--7-7-------------------------------------------|
A|--5-5-2-2----2-2--|--5-5-2-2----2-2--------------------------------|
E|------0-0-3b-0-0--|------0-0-3b-0-0-3b-3b/-------------------------|

Slide is for verse 2

Verse 2
e|-------------------------------------------------------------------|
B|-------------------------------------------------------------------|
G|-(0)---------------------------------------------------------------|
D|--0----------------------------------------------------------------|
A|--x-----2-2----2-2--------2-2----2-2-------------------------------|
E|--5-----0-0-3b-0-0-3b-3b--0-0-3b-0-0-3b-3b/------------------------|

Not sure about the improvisation, but for verse 3 just slide up and
down the E string randomly

Post-chorus (?)
e|-------------------------------------------------------------------|
B|-------------------------------------------------------------------|
G|--5-5-5------------------7-7-7-------------------------------------|
D|--5-5-5------------------7-7-7-------------------------------------|
A|--3-3-3-2-2----2-2-------5-5-5-2-2----2-2--------------------------|
E|--------0-0-3b-0-0-3b-3b-------0-0-3b-0-0-3b-3b--------------------|


************************************

| /   slide up
| \   slide down
| h   hammer-on
| p   pull-off
| ~   vibrato
| +   harmonic
| x   Mute note
| b   Bend
| pb  Pre-bend
| br  Bend release
| pbr Pre-bend release
| brb Bend release bend

************************************
comments
We did not receive enough feedback on this tab! Please rate:
print report bad tab
1 2 3 4 5
I want to post or [tab]
guest
You may want to rate the tab now too:
select rating
Please do not post tabs as comments. Select "correction" instead!