Oops, an error
Loading. Please wait.

Missed Tab

7,185 views 1 this week
no commentswrite comment
1 2 3 4 5
x 4
add to favorites
launch autoscroll
font size
0
reset
how to read this tab
guitar tuner
Autoscroll
slow
fast
+/-
esc
set tempo
stop
Help us to improve Ultimate-Guitar.com Take our survey!
×
Author
Difficulty
novice
-----------------------------------------------------------------------------
                             MISSED - PJ HARVEY
-----------------------------------------------------------------------------
Tabbed by: lifer
Email: paranoid_toaster@hotmail.com


Intro/Main Riff

e|-------------------------------------------------------------------|
B|-------------------------------------------------------------------|
G|--------0--0---------0-----0---------------------------------------|
D|-------------------5-----0------33---33---33-----------------------|
A|-----3--------3--5--------------33---33---33-----------------------|
E|--5--------------------3--------11-0-11-0-11-0-0-------------------|

1st Verse

e|-------------------------------------------------------------------|
B|-------------------------------------------------------------------|
G|-------------------------------------------------------------------|
D|--5-----3-----5-----3-----10----7-----3-----7----------------------|
A|--3-----3-----3-----3-----10----7-----3-----7----------------------|
E|--5-----1-----5-----1-----8-----5-----1-----5----------------------|
pm |--------------------------------------------|

2nd Verse 

e|-------------------------------------------------------------------|
B|--0-----------0-----------0----------------------------------------|
G|--0-----------0-----------0----------------------------------------|
D|--5-----3-----5-----3-----10----7-----3-----7----------------------|
A|--3-----3-----3-----3-----10----7-----3-----7----------------------|
E|--5-----1-----5-----1-----8-----5-----1-----5----------------------|


Chorus ("No I missed him")

e|-------------------------------------------------------------------|
B|--0-----0----------------------------------------------------------|
G|--0-----0----------------------------------------------------------|
D|--5-----5-----33---33---33-----------------------------------------|
A|--3-----5-----33---33---33-----------------------------------------|
E|--5-----3-----11-0-11-0-11-0-0-------------------------------------|

Interlude bit

e|-------------------------------------------------------------------|
B|-------------------------------------------------------------------|
G|-------------------------------------------------------------------|
D|--55555---55555-----33---33---33-----------------------------------|
A|--33333---33333-----33---33---33-----------------------------------|
E|--55555---55555-----11-0-11-0-11-0-0-------------------------------|


| /  slide up
| \  slide down
| h  hammer-on
| p  pull-off
| ~  vibrato
| +  harmonic
| x  Mute note
Suggest correction
comments
print report bad tab
guest
You may want to rate the tab now too:
select rating
Wanna post a correction for this tab? Suggest correction