Oops, an error
Loading. Please wait.

Oh My Lover Tab

8,930 views 15 this week
2 commentsread comments
1 2 3 4 5
x 3
add to favorites
launch autoscroll
font size
0
reset
how to read this tab
guitar tuner
Autoscroll
slow
fast
+/-
esc
set tempo
stop
Help us to improve Ultimate-Guitar.com Take our survey!
×
Author
Difficulty
novice
Main riff:

     Dm                  A
     W                   E  Q.     Q    Q        H.            E  E
E||-------------------|----------------------|------------------------|
B||-(6)---------------|----------------------|------------------------|
G||-(7)---------------|----------------------|------------------------|
D||--7----------------|----------------------|------------------------|
A||--5----------------|-----7------7---------|------------------------|
E||-------------------|-----5------5---------|--(5)------------0--3b--|


  E  E  Q    Q    Q
------------------------||
------------------------||
------------------------||
------------------------||
-------------5----8b----||
--L--3--L---------------||

The main riff is repeated through the intro and verses with many small variations. I 
wrote the basic one.


VERSE 1:

Dm       A
oh my lover
                     G    Dm
don't you know it's alright
              A
you can love her
                       G     Dm
you can love me at the same time
Dm             A
much to discover
                          G     Dm
I know you don't have the time but
Dm        A
oh my lover
                    G    Dm
don't you know it's alright

VERSE 2: (same chords)

oh my sweet thing
oh my honey thighs
give me your troubles
I'll keep them with mine
take at your leisure
take whatever you can find but
oh my sweet thing
don't you know it's alright


CHORUS:

Bb7
it's alright
Dm
it's alright
Bb7
there's no time
        A   A7
so it's alright


VERSE 3:

what's that color
forming around your eyes
watch my lover
tell me that it's all right
just another
before you go...go away

Dm     A
oh my lover
                   G   Dm  Bb7
why don't you just say my name


         Dm
and it's alright
         Bb7
say it's alright
           A  A7
there's no time

OUTRO:

Dm Bb7 (repeat several times. end on Bb7)


CHORDS:

     Dm       A           G        Bb7         A7

E||--5--------5--------|--3--------6--------|--5--------||
B||--6--------5--------|--3--------9--------|--8--------||
G||--7--------6--------|--4--------7--------|--6--------||
D||--7--------7--------|--5--------6--------|--5--------||
A||--5--------7--------|--5--------8--------|--7--------||
E||-----------5--------|--3--------6--------|--5--------||
Suggest correction
Give kudos to tab author, rate the tab!
1 2 3 4 5
comments
print report bad tab
2 comments total.
0 reply
leech3 83 Jan 15, 2015 09:10 AM, edited at 09:10 am

Not sure why you tried to tab the bass riff, but the chords are accurate. Doesn't deserve the one star rating.

0 reply
leech3 83 Jan 15, 2015 09:19 AM

Dm
and it's alright
Bb7
say it's alright
A A7
there's no time

Dm Bb7

This is wrong, should be:

Dm
and it's alright
Bb7
say it's alright
C Ab
there's no time

Dm Bb7

guest
You may want to rate the tab now too:
select rating
Wanna post a correction for this tab? Suggest correction