Oops, an error
Loading. Please wait.

The Letter tab

version 3
version 3

Whole song

Interactive

415 views 3 this week
no commentswrite comment
1 2 3 4 5
3 more votes to show rating
add to favorites
×
Save as Personal and add changes to this tab that will be seen only by you. Learn more ›
×
You can save this tab as Personal to edit and correct it or add notes. All changes will be seen only by you. Learn more »
launch autoscroll
font size
0
reset
how to read this tab
guitar tuner
edit
Autoscroll
slow
fast
+/-
esc
set tempo
stop
Author
Difficulty
newg [tm] 49,829
intermediate
----------------------------------------------------------------------------------------------------
                          PJ Harvey - The Letter
----------------------------------------------------------------------------------------------------

Album : Uh Huh Her (2004)
Tempo : 110
E-mail: gwendal.mollo@orange.fr
Tabbed by: newg    (http://profile.ultimate-guitar.com/newg/)

Tuning : Turn the E low string to B : BADGBE

Main Riff :
e|-----------------------------|-------------------------|
B|-----------------------------|--------5-----5----3-----|
G|-----------------------------|-------------------------|
D|-----------------------------|-------------------------|
A|--------9---------5-5--5--2--|-------------------------|
B|--0--0-----------------------|--3--3-------------------|


Alternative :
e|-----------------------------|-------------------------|
B|-----------------------------|---------------5---------|
G|-----------------------------|-------------------------|
D|-----------------------------|-------------------------|
A|--------9---------5-5--5--2--|-------------------------|
B|--0--0-----------------------|--3--3--3--3-------------|


Chorus : 
    B5                                 D5
e|----------------------------------|-----------------------------|
B|----------------------------------|-----------------------------|
G|--------2--------2-----4--4-------|-------5--------10-10-5---7--|
D|--------2--------2-----4--4-------|-------5--------10-10-5---7--|
A|--2--2--2--2--2--2--2--2--2-------|--5-5--5--5--5--5--5--5---5--|
B|----------------------------------|-----------------------------| x3

    B5                                                   F5  E5  D5  B5
e|----------------------------------------------------|-----------------|
B|----------------------------------------------------|-----------------|
G|--2-----2-----2-----2--x--x--4--4-----4-----x--x----|--11--9---7---4--|
D|--2-----2-----2-----2--x--x--4--4-----4-----x--x----|--11--9---7---4--|
A|--2-----2-----2-----2--2--2--2--2-----2-------------|--9---7---5---2--|
B|----------------------------------------------------|-----------------|


Bridge :
e|----------------------------|----------------------------|
B|--12----12----12----12------|----------------------------|
G|-----11----11----11----11---|----------------------------| (I need you...)
D|----------------------------|----------------------------|
A|----------------------------|----------------------------|
B|----------------------------|--10-10-10-11-11-11-12------| x4




Lyrics :

Put the pen
To the paper
Press the envelope
With my scent
Can't you see
In my handwriting
The curve Of my g?
The longing

Oh

Who is left that
Writes these days?
You and me
We'll be different
Take the cap
Off your pen
Wet the envelope
Lick and lick it

Oh

I need you
The time is running out
Oh baby
Can't you hear me call?

It turns me on
To imagine
Your blue eyes
On my words
Your beautiful pen
Take the cap off
Give me a sign 
and I'd come running

Oh
It's you
I want you

            
            
Suggest correction
Creating personal tab
Creating personal tab
You can edit any tab online and save it as your Personal.

You can edit, replace or remove any tab part or add personal notes – all changes will be seen only by you.

Personal tabs can be accessed anytime from any device, even offline.
Learn more »
Give kudos to tab author, rate the tab!
1 2 3 4 5
comments
print report bad tab
guest
You may want to rate the tab now too:
select rating
Wanna post a correction for this tab? Suggest correction