Oops, an error
Loading. Please wait.

Victory Bass Tab

1,559 views 9 this week
no commentswrite comment
1 2 3 4 5
2 more votes to show rating
add to favorites
launch autoscroll
font size
0
reset
guitar tuner
Autoscroll
slow
fast
+/-
esc
set tempo
stop
Help us to improve Ultimate-Guitar.com Take our survey!
×
Author
Victory
PJ Harvey
Bass Tab


Main Riff (popped)

|-------------------------|
|-------------------------|
|-------3-----------3--3--|
|-5---5-----5--5--5-------|

(Or you can play it)

|-6---6--9---6--6--6--9---9--|
|-7---7-10---7--7--7-10--10--|
|----------------------------|
|-5---5--8---5--5--5--8---8--|

Chorus

|--------------------------------------------------|
|--------------------------------------------------|
|-5------10/--3--------3-5-------3-----------3--3--|
|--------------------5-----5---5-----5--5--5-------|

|-------------------------------------------------|
|--------------------10/--------------------------|
|-5------10/--3-----------------3-----------3--3--|
|-------------------------5---5-----5--5--5-------|

Ending

|-------------------|
|-------------------|
|-------3-5-3-------|
|-5---5-------5~----|

Main Riff x16
Chorus
Main Riff x7
Chorus x2
Main Riff x14
Ending

Suggest correction
Give kudos to tab author, rate the tab!
1 2 3 4 5
comments
print report bad tab
guest
You may want to rate the tab now too:
select rating
Wanna post a correction for this tab? Suggest correction