Oops, an error
Loading. Please wait.

Yuri-G Bass Tab

version 1
version 1

Whole song

Interactive

847 views 3 this week
no commentswrite comment
1 2 3 4 5
3 more votes to show rating
add to favorites
launch autoscroll
font size
0
reset
guitar tuner
Autoscroll
slow
fast
+/-
esc
set tempo
stop
Help us to improve Ultimate-Guitar.com Take our survey!
×
Difficulty
intermediate
Yuri- G
PJ Harvey
Rid Of Me- track 9
Bass
Tuning- EADG

The Bass doesn\'t enter until :46 seconds into yuri- g
I play with my fingers until the chorus, then use a pick
listen to the song too get the rhythm

G------------------------------------------------------------------|
D------------------------------------------------------------------|
A------------------------------------------------------------------|
E-------9-9-9--9-9----7-7-7--7-7----2-2-2--2-2--------2-2---2-2-2--|slidedown

(slide back to nine)

Play it twice then it goes to @ 1:00

G-----------------------------------------------------------------------------|
D-----------------------------------------------------------------------------|
A-----------------------------------------------------------------------------|
E--------------9--9/----7--7/----9--9/-----7--7/-----9--9/-----7--7/----------|

Chorus: distorted w/ Pick @ 1:11
G-------------------------------------------------------------------------------------------|
D-------------------------------------------------------------------------------------------|
A-------------------------------------------5-5-5-5-5----2-2-2-2----------------------------|
E--------2-2-2-----5-5-5----2--2-2-----------------------------------2----5-5-5-5-5----2-2--|


and thats pretty much it!!!!
just follow the song and Steve Vaughan\'s  bass
Suggest correction
Give kudos to tab author, rate the tab!
1 2 3 4 5
comments
print report bad tab
guest
You may want to rate the tab now too:
select rating
Wanna post a correction for this tab? Suggest correction