Oops, an error
Loading. Please wait.

London ukulele

by PK
45 views 1 this week
no commentswrite comment
1 2 3 4 5
3 more votes to show rating
add to favorites
×
Save as Personal and add changes to this tab that will be seen only by you. Learn more ›
×
You can save this tab as Personal to edit and correct it or add notes. All changes will be seen only by you. Learn more »
launch autoscroll
font size
0
reset
transpose
0
reset
display chords
guitar tuner
edit
Autoscroll
slow
fast
+/-
esc
set tempo
stop
Strumming
There is no strumming pattern for this song yet. and get +5 IQ
-----------------------------------------------------------------------------
                           "London" - PK
-----------------------------------------------------------------------------
Band Website: http://www.pkband.com/

Tabbed by: mr.mick.d
Email: keeperkid1@gmail.com

Tuning: Standard

Intro: Eb, Cm, Eb, Cm  x2

  riff 1   x2
e|--------------------------------------------------------------------------|
B|--------------------------------------------------------------------------|
G|---8-8-8-7-7-7------------------8-8-8-7-7-7-------------------------------|
D|---------------5-5-5-5-5-5------------------5-5-5-5-5-5-8-8---------------|
A|--------------------------------------------------------------------------|
E|--------------------------------------------------------------------------|
 **guitar 2 plays this second time through intro chords.
   


Eb
The London Rail roars ahead
Cm
Nineteen by the light of the room
Eb
Luggage up above our beds
Cm
I jolt and sway 'til I reach you

Eb
Tangled up are two legs
Cm
Two legs, two legs
Eb
Tangled up are two legs
Cm
Hold up, cuz it ain't ever felt like this before

    Eb      Fm          Cm
It takes me back to my hometown
    Ab                   Eb
My first kiss down under oak trees
         Eb      Fm            Cm 
Does it take you back to your chateaux?
     Ab                     Eb
Or Marseilles, down on the seaside
    Eb      Fm          Cm
It takes me back to my hometown
         Ab                   Eb
When you kiss me, I feel the whole train shake
    Eb       Fm            Cm       
It takes you back to your chateaux
         Ab       Eb
I wanna hold this in


Eb, Cm, Eb, Cm

  riff 2   x2
e|--------------------------------------------------------------------------|
B|-11-11-11-11-11-11-11-----------------11-11-11-11-11-11-11----------------|
G|--------------------------------------------------------------------------|
D|-----------------------5-5-5-5------------------------------5-5-5-5-8-8-8-|
A|-------------------------------6-6-6--------------------------------------|
E|--------------------------------------------------------------------------|
*Riff 1 is played during this part as well.

Eb
Ginger Ale on the plane
Cm
I'll wake you up when we get there
Eb
I change my mind, but you don't complain
Cm
I can't help when I miss you

 Eb
American boy starts to feel it
       Cm
Do you feel it? Do you feel it, too?
 Eb
American boy, isn't it strange?
      Cm
Isn't it strange, isn't it strange, this ain't the same.

    Eb      Fm          Cm
It takes me back to my hometown
    Ab                   Eb
My first kiss down under oak trees
    Eb       Fm            Cm
It takes you back to your chateaux
    Ab                      Eb
Or Marseilles, down on the seaside
    Eb      Fm          Cm
It takes me back to my hometown
         Ab                   Eb
When you kiss me, I feel the whole plane burn
    Eb       Fm            Cm
It takes you back to your chateaux
         Ab       Eb
I wanna hold this in


Eb                      Cm
Whoa oh oh, whoa oh oh, whoa oh oh oh oh     x4   (riff 2 played here also)


Eb       Fm                 Cm
Cuz it ain't ever felt like this I swear
         Ab                 Eb
I ain't fooling, yeah, you floored me
Eb     Fm             Cm                Ab   Eb
Oh I ain't ever had a kiss like yours

Eb        Fm                Cm
Cuz it ain't ever felt like this I swear
         Ab                 Eb
I ain't fooling, yeah, you floored me
Eb    Fm           Cm
I ain't ever had a kiss like yours
  Ab                      Eb
American boy you're just dreaming

Eb        Fm           Cm
Cuz it ain't ever felt like this I swear
         Ab                 Eb
I ain't fooling, yeah, you floored me
Eb   Fm            Cm     
I ain't ever had a kiss like yours
     Ab               Eb
I'm drunk still, I'm drunk still


Outro: Eb, Fm, Cm
                 (let ring)

            
            
Suggest correction
Creating personal tab
Creating personal tab
You can edit any tab online and save it as your Personal.

You can edit, replace or remove any tab part or add personal notes – all changes will be seen only by you.

Personal tabs can be accessed anytime from any device, even offline.
Learn more »
Give kudos to tab author, rate the tab!
1 2 3 4 5
comments
print report bad tab
guest
Wanna post a correction for this tab? Suggest correction