Oops, an error
Loading. Please wait.

Asshole Pandemic tab

97 views 9 this week
no commentswrite comment
1 2 3 4 5
3 more votes to show rating
add to favorites
×
Save as Personal and add changes to this tab that will be seen only by you. Learn more ›
×
You can save this tab as Personal to edit and correct it or add notes. All changes will be seen only by you. Learn more »
launch autoscroll
font size
0
reset
how to read this tab
guitar tuner
edit
Autoscroll
slow
fast
+/-
esc
set tempo
stop
PKEW PKEW PKEW - Asshole Pandemic
Tuning: **E standard**
(exact rhythms aren't tabbed out, but can figure out by ear)

[Intro/Verse 1]
  (listen to track for simple palm muting pattern)
e|---------------------------------|
B|-----4-4-----4-4-----4-4-----4-4-|
G|-----4-4-----4-4-----4-4-----4-4-|
D|-4-4-4-4-4-4-4-4-4-4-4-4-4-4-4-4-|  X4
A|-2-2-2-2-2-2-2-2-2-2-2-2-2-2-2-2-|
E|---------------------------------|

e|-0-------------0-----------------|
B|-0-------------0-----------------|
G|-1-------------1-----------------|
D|-2-------------2-----------------|  X2
A|-2-------------2-----------------|
E|-0-------------0-----------------|

e|---------------------------------|
B|-----4-4-----4-4-----4-4-----4-4-|
G|-----4-4-----4-4-----4-4-----4-4-|
D|-4-4-4-4-4-4-4-4-4-4-4-4-4-4-4-4-|  X2
A|-2-2-2-2-2-2-2-2-2-2-2-2-2-2-2-2-|
E|---------------------------------|

e|-0-------------0-----------------|
B|-0-------------0-----------------|
G|-1-------------1-----------------|
D|-2-------------2-----------------|  X2
A|-2-------------2-----------------|
E|-0-------------0-----------------|

[Chorus 1]
 (strumming)
e|----------------------------|------------------------|
B|----------------------------|------------------------|
G|----------------------------|------------------------|
D|-4-----------------4-4-4-4--|-4----------------------|
A|-4-----------------4-4-4-4--|-4----------------------|
E|-2-----------------2-0-2-0--|-2----------------------|

e|----------------------------|------------------------|
B|----------------------------|------------------------|
G|-9--------------------------|-9----------------------|
D|-9-------------9------------|-9-------------9--------|
A|-7-------------7------------|-7-------------7--------|
E|---------------0------------|---------------0--------|

e|----------------------------|------------------------|
B|----------------------------|------------------------|
G|----------------------------|------------------------|
D|-4-----------------4-4-4-4--|-4----------------------|
A|-4-----------------4-4-4-4--|-4----------------------|
E|-2-----------------2-0-2-0--|-2----------------------|

e|----------------------------|------------------------|
B|----------------------------|------------------------|
G|-9--------------------------|-9----------------------|
D|-9-------------9------------|-9-------------9--------|
A|-7-------------7------------|-7-------------7--------|
E|---------------0------------|---------------0--------|

[Post-Chorus]
e|---------------------------------|-------------------------------|
B|-4---7---4-7-4-7---4-7---4-7-4-7-|-4---7---4-7-4-7---4-7---5-5-5-|
G|-4---4---4-4-4-4---4-4---4-4-4-4-|-4---4---4-4-4-4---4-4---4-4-4-|
D|---------------------------------|-------------------------2-2-2-|
A|---------------------------------|-------------------------------|
E|---------------------------------|-------------------------------|

[Verse 2]
e|---------------------------------|
B|-----4-4-----4-4-----4-4-----4-4-|
G|-----4-4-----4-4-----4-4-----4-4-|
D|-4-4-4-4-4-4-4-4-4-4-4-4-4-4-4-4-|  X2
A|-2-2-2-2-2-2-2-2-2-2-2-2-2-2-2-2-|
E|---------------------------------|

e|-0-------------0-----------------|
B|-0-------------0-----------------|
G|-1-------------1-----------------|
D|-2-------------2-----------------|  X2
A|-2-------------2-----------------|
E|-0-------------0-----------------|

   Guitar 1
e|---------------------------------|
B|-7-5-4---7-5-4---7-5-4---7-5-4---|
G|-------4-------4-------4-------4-|
D|---------------------------------|  X2        
A|---------------------------------|
E|---------------------------------|
 |                                 |
 | Guitar 2                        |
e|---------------------------------|
B|-----4-4-----4-4-----4-4-----4-4-|
G|-----4-4-----4-4-----4-4-----4-4-|
D|-4-4-4-4-4-4-4-4-4-4-4-4-4-4-4-4-|  X2
A|-2-2-2-2-2-2-2-2-2-2-2-2-2-2-2-2-|
E|---------------------------------|

e|-0-------------0-----------------|
B|-0-------------0-----------------|
G|-1-------------1-----------------|
D|-2-------------2-----------------|  X2
A|-2-------------2-----------------|
E|-0-------------0-----------------|

[Chorus 2]
 (strumming)
e|----------------------------|------------------------|
B|----------------------------|------------------------|
G|----------------------------|------------------------|
D|-4-----------------4-4-4-4--|-4----------------------|
A|-4-----------------4-4-4-4--|-4----------------------|
E|-2-----------------2-0-2-0--|-2----------------------|

e|----------------------------|------------------------|
B|----------------------------|------------------------|
G|-9--------------------------|-9----------------------|
D|-9-------------9------------|-9-------------9--------|
A|-7-------------7------------|-7-------------7--------|
E|---------------0------------|---------------0--------|

e|----------------------------|------------------------|
B|----------------------------|------------------------|
G|----------------------------|------------------------|
D|-4-----------------4-4-4-4--|-4----------------------|
A|-4-----------------4-4-4-4--|-4----------------------|
E|-2-----------------2-0-2-0--|-2----------------------|

e|----------------------------|------------------------|
B|----------------------------|------------------------|
G|-9--------------------------|-9----------------------|
D|-9-------------9------------|-9-------------9--------|
A|-7-------------7------------|-7-------------7--------|
E|---------------0------------|---------------0--------|

[Verse 3]
(let ring)
e|-------------------------|
B|-4-----------------------|
G|-4-----------------------|
D|-4-----------------------|  X2
A|-2-----------------------|
E|-------------------------|

   Guitar 1 (strumming)
e|-------------------------|-----------------------|
B|-0-----2-----4-----5-----|-----------------------|
G|-1-----3-----4-----4-----|-----------------------|
D|-------------------------|---------pause---------|
A|-------------------------|-----------------------|
E|-------------------------|-----------------------|
 |                         |
 | Guitar 2 (let ring)     |
e|-0-----------------------|-----------------------|
B|-0-----------------------|-----------------------|
G|-1-----------------------|-----------------------|
D|-2-----------------------|-----------------------|
A|-2-----------------------|-----------------------|
E|-0-----------------------|--------pick slide-----|

[Chorus 3]
 (strumming)
e|----------------------------|------------------------|
B|----------------------------|------------------------|
G|----------------------------|------------------------|
D|-4-----------------4-4-4-4--|-4----------------------|
A|-4-----------------4-4-4-4--|-4----------------------|
E|-2-----------------2-0-2-0--|-2----------------------|

e|----------------------------|------------------------|
B|----------------------------|------------------------|
G|-9--------------------------|-9----------------------|
D|-9-------------9------------|-9-------------9--------|
A|-7-------------7------------|-7-------------7--------|
E|---------------0------------|---------------0--------|

e|----------------------------|------------------------|
B|----------------------------|------------------------|
G|----------------------------|------------------------|
D|-4-----------------4-4-4-4--|-4----------------------|
A|-4-----------------4-4-4-4--|-4----------------------|
E|-2-----------------2-0-2-0--|-2----------------------|

e|----------------------------|------------------------|
B|----------------------------|------------------------|
G|-9--------------------------|-9----------------------|
D|-9-------------9------------|-9-------------9--------|
A|-7-------------7------------|-7-------------7--------|
E|---------------0------------|---------------0--------|
 
  Guitar 1 (let ring)
e|----------------------------|------------------------|-----------------|
B|----------------------------|------------------------|-----------------|
G|-4--------------------------|-(4)--------------------|-----------------|
D|-4--------------------------|-(4)--------------------|-----------------|
A|-2--------------------------|-(2)--------------------|--(stop)---------|
E|----------------------------|------------------------|-----------------|
 |                            |                        |                 |
 |Guitar 2 (let ring)         |                        |                 |
e|----------------------------|------------------------|-----------------|
B|----------------------------|------------------------|-----------------|
G|----------------------------|------------------------|-----------------|
D|-4-------------------4-4-4--|-4-----------------4-4--|-2---------------|
A|-4-------------------4-4-4--|-4-----------------4-4--|-2--(stop)-------|
E|-2-------------------0-2-0--|-2-----------------2-2--|-0---------------|

[END]

Tabbed by: Pestilent Decay

            
            
Suggest correction
Creating personal tab
Creating personal tab
You can edit any tab online and save it as your Personal.

You can edit, replace or remove any tab part or add personal notes – all changes will be seen only by you.

Personal tabs can be accessed anytime from any device, even offline.
Learn more »
Give kudos to tab author, rate the tab!
1 2 3 4 5
comments
print report bad tab
guest
You may want to rate the tab now too:
select rating
Wanna post a correction for this tab? Suggest correction