Oops, an error
Loading. Please wait.

A Million Little Pieces Tab

version 1
version 1

Whole song

Interactive

3,690 views 12 this week
no commentswrite comment
1 2 3 4 5
3 more votes to show rating
add to favorites
launch autoscroll
font size
0
reset
how to read this tab
guitar tuner
Autoscroll
slow
fast
+/-
esc
set tempo
stop
Help us to improve Ultimate-Guitar.com Take our survey!
×
Difficulty
novice
Song: A Million Little Pieces
Artist: PLACEBO
Album: Loud Like Love (2013)
Track: 06
Tuning: E A D G B e
Tab by: 8991placebo


Pre-Verse

E | -11-11-11-11-11-11-11-------9-9-9-9-9-9-9-9-9-9-9-9------------------ |
B | -11-11-11-11-11-11-11-------9-9-9-9-9-9-9-9-9-9-9-9------------------ |
G | --------------------------------------------------------------------- |
D | --------------------------------------------------------------------- |
A | --------------------------------------------------------------------- |
E | --------------------------------------------------------------------- |

E | -11-11-11-11-11-11-11-------6-6-6-6-6-6-4-4-4-4-4-4------------------ |
B | -11-11-11-11-11-11-11-------6-6-6-6-6-6-4-4-4-4-4-4------------------ |
G | --------------------------------------------------------------------- |
D | --------------------------------------------------------------------- |
A | --------------------------------------------------------------------- |
E | --------------------------------------------------------------------- |

Verse 1 

E | --------------------------------------------------------------------- |
B | --------------------------------------------------------------------- |
G | --------------------------------------------------------------------- |
D | -11-11-11-11-11-11-11-11----8~~-------------------------------------- |
A | -11-11-11-11-11-11-11-11----8~~-------------------------------------- |
E | -9--9--9--9--9--9--9--9-----6~~-------------------------------------- |


Refrain

E | -11-11-11-11-11-11-11-------9-9-9-9-9-9-9-9-9-9-9-9------------------ |
B | -11-11-11-11-11-11-11-------9-9-9-9-9-9-9-9-9-9-9-9------------------ |
G | --------------------------------------------------------------------- |
D | --------------------------------------------------------------------- |
A | --------------------------------------------------------------------- |
E | --------------------------------------------------------------------- |

E | -11-11-11-11-11-11-11-------6-6-6-6-6-6-4-4-4-4-4-4------------------ |
B | -11-11-11-11-11-11-11-------6-6-6-6-6-6-4-4-4-4-4-4------------------ |
G | --------------------------------------------------------------------- |
D | --------------------------------------------------------------------- |
A | --------------------------------------------------------------------- |
E | --------------------------------------------------------------------- |

Verse 2

E | --------------------------------------------------------------------- |
B | --------------------------------------------------------------------- |
G | --------------------------------------------------------------------- |
D | -11-11-11-11-11-11-11-11----8~~-------------------------------------- |
A | -11-11-11-11-11-11-11-11----8~~-------------------------------------- |
E | -9--9--9--9--9--9--9--9-----6~~-------------------------------------- |

Refrain

E | -11-11-11-11-11-11-11-------9-9-9-9-9-9-9-9-9-9-9-9------------------ |
B | -11-11-11-11-11-11-11-------9-9-9-9-9-9-9-9-9-9-9-9------------------ |
G | --------------------------------------------------------------------- |
D | --------------------------------------------------------------------- |
A | --------------------------------------------------------------------- |
E | --------------------------------------------------------------------- |

E | -11-11-11-11-11-11-11-------6-6-6-6-6-6-4-4-4-4-4-4------------------ |
B | -11-11-11-11-11-11-11-------6-6-6-6-6-6-4-4-4-4-4-4------------------ |
G | --------------------------------------------------------------------- |
D | --------------------------------------------------------------------- |
A | --------------------------------------------------------------------- |
E | --------------------------------------------------------------------- |

E | -6-6-6-6-6-6-9-9-9-9-11-11-11-11--9-9-9-9-9-9------------------------ |
B | -6-6-6-6-6-6-9-9-9-9-11-11-11-11--9-9-9-9-9-9------------------------ |
G | --------------------------------------------------------------------- |
D | --------------------------------------------------------------------- |
A | --------------------------------------------------------------------- |
E | --------------------------------------------------------------------- |

E | -9-9-9-9-9-9-9-7/11-11-11-11-11-9/14-14-14-14-14-16-16-16-16-16--12~~ |
B | --------------------------------------------------------------------- |
G | --------------------------------------------------------------------- |
D | --------------------------------------------------------------------- |
A | --------------------------------------------------------------------- |
E | --------------------------------------------------------------------- |

Interlude - nothing

Outro

E | -11-11-11-11-11-11-11-------9-9-9-9-9-9-9-9-9-9-9-9------------------ |
B | -11-11-11-11-11-11-11-------9-9-9-9-9-9-9-9-9-9-9-9------------------ |
G | --------------------------------------------------------------------- |
D | --------------------------------------------------------------------- |
A | --------------------------------------------------------------------- |
E | --------------------------------------------------------------------- |

E | -11-11-11-11-11-11-11-------6-6-6-6-6-6-4-4-4-4-4-4------------------ |
B | -11-11-11-11-11-11-11-------6-6-6-6-6-6-4-4-4-4-4-4------------------ |
G | --------------------------------------------------------------------- |
D | --------------------------------------------------------------------- |
A | --------------------------------------------------------------------- |
E | --------------------------------------------------------------------- |

E | -14-14-14-14-11-11-11-------9-9-9-9-9-9-9-9-9-9-9-9------------------ |
B | -14-14-14-14-11-11-11-------9-9-9-9-9-9-9-9-9-9-9-9------------------ |
G | --------------------------------------------------------------------- |
D | --------------------------------------------------------------------- |
A | --------------------------------------------------------------------- |
E | --------------------------------------------------------------------- |

E | -14-14-14-14-11-11-11-------6-6-6-6-6-6-4-4-4-4-4-4------------------ |
B | -14-14-14-14-11-11-11-------6-6-6-6-6-6-4-4-4-4-4-4------------------ |
G | --------------------------------------------------------------------- |
D | --------------------------------------------------------------------- |
A | --------------------------------------------------------------------- |
E | --------------------------------------------------------------------- |

E | -6-6-6-6-6-6-9-9-9-9-11-11-11-11--9-9-9-9-9-9------------------------ |
B | -6-6-6-6-6-6-9-9-9-9-11-11-11-11--9-9-9-9-9-9------------------------ |
G | --------------------------------------------------------------------- |
D | --------------------------------------------------------------------- |
A | --------------------------------------------------------------------- |
E | --------------------------------------------------------------------- |

E | -9-9-9-9-9-9-9-7/11-11-11-11-11-9/14-14-14-14-14-16-16-16-16-16--12~~ |
B | --------------------------------------------------------------------- |
G | --------------------------------------------------------------------- |
D | --------------------------------------------------------------------- |
A | --------------------------------------------------------------------- |
E | --------------------------------------------------------------------- |


I liked that song after listening to it the first time, one of my favourites of LLL !
Hope you enjoyed playing this song and please don't forget to rate the tab!
Suggest correction
Give kudos to tab author, rate the tab!
1 2 3 4 5
comments
print report bad tab
guest
You may want to rate the tab now too:
select rating
Wanna post a correction for this tab? Suggest correction