Oops, an error
Loading. Please wait.

Allergic Tab

3,442 views 3 this week
3 commentsread comments
1 2 3 4 5
x 11
add to favorites
launch autoscroll
font size
how to read this tab
guitar tuner
set tempo
Help us to improve Ultimate-Guitar.com Take our survey!
Palm Mute

C  ---------------------------------------
C  ---------------------------------------
G# ---------------------------------------
D# ---------------------------------------
A# ---------------------------------------
F  -7-7-7-7-12-12-12-12-5-5-5-5-3-3-3-3---

Note:* Harmonic (Hence the finger held lightly over fret.)

Brian's behind the bridge guitar solo:
C  -0-0-0-0-0-0-0-0-0-0-0-0-0-------------
C  -0-0-0-0-0-0-0-0-0-0-0-0-0-0-----------
G# -0-0-0-0-0-0-0-0-0-0-0-0-0---0---------
D# -0-0-0-0-0-0-0-0-0-0-0-0-0-------------
A# -0-0-0-0-0-0-0-0-0-0-0-0-0-------------
F  -0-0-0-0-0-0-0-0-0-0-0-0-0-------------
Suggest correction
print report bad tab
3 comments total.
0 reply
Cereals 51 wrote on June 8 2007, 05:09 am

better luck next time ;)

0 reply
LFC468 57 wrote on October 25 2010, 04:53 pm

Hay mate don't listen to these twats. Ive lernt loads of placebo stuff by ear and im a perfectionist and make sure I watch then play live and make sure thats how Brain does it. This tab is totally correct. You may have lost some people by how you have actually tabbed it.

For everybody elses benifit The main riff is played using natural harmonics the solo is played behind the bridge of his fender jaguar while he moves the temolo arm up and down.

Great tab mate, I hope you red this and keep up the good work.

0 reply
Gavier 10 wrote on December 10 2011, 03:54 pm

LFC468 is right. Tab is accurate, brain play it just like that. Ofcourse you HAVE TO use harmonics else It would sound wrong.

When you aren't using harmonics you can play it like this:
F ----7-7-7-7-0-0-0-0-12-12-12-12-19-19-19-19-------

You may want to rate the tab now too:
select rating
Wanna post a correction for this tab? Suggest correction