Oops, an error
Loading. Please wait.

Allergic To Thoughts Of Mother Earth Bass Tab

version 1
version 1

Whole song

Interactive

1,399 views 1 this week
1 commentread comment
1 2 3 4 5
excellent!
x 3
add to favorites
launch autoscroll
font size
0
reset
guitar tuner
Autoscroll
slow
fast
+/-
esc
set tempo
stop
Help us to improve Ultimate-Guitar.com Take our survey!
×
Difficulty
novice
PLACEBO - ALLERGIC (TO THOUGHTS OF MOTHER EARTH)
Afinado normal (EADG)
Por: LUIS GUSTAVO HERNÁNDEZ COLLADO

intro/verso
G|------------------------|
D|------------------------|  x8
A|------------6-6-6-6-6-6-|
E|4-4-4-4-4-4-------------|

pre-coro
G|------------------------|
D|3-3-3-3-3-3-1-1-1-1-1-1-|  x4
A|------------------------|
E|------------------------|

verso
G|------------------------|
D|------------------------|  x4
A|------------6-6-6-6-6-6-|
E|4-4-4-4-4-4-------------|

pre-coro
G|------------------------|
D|3-3-3-3-3-3-1-1-1-1-1-1-|  x4
A|------------------------|
E|------------------------|

coro
G|------------------------|
D|------------------------|  x3
A|------------------------|
E|4-4-4-4-4-4-3-3-3-3-3-3-|

G|------------------------|
D|------------------------|  x1
A|------------------------|
E|4-4-4-4-4-4-6-6-6-6-6-6-|

bridge
G|------------------------|
D|------------------------|  x4
A|3-3-3-3-3-3-1-1-1-1-1-1-|
E|------------------------|

coro
G|------------------------|
D|------------------------|  x3
A|------------------------|
E|4-4-4-4-4-4-3-3-3-3-3-3-|

G|------------------------|
D|------------------------|  x1
A|------------------------|
E|4-4-4-4-4-4-6-6-6-6-6-6-|

pre-coro
G|------------------------|
D|3-3-3-3-3-3-1-1-1-1-1-1-|  x4
A|------------------------|
E|------------------------|

bridge
G|------------------------|
D|------------------------|  x4
A|3-3-3-3-3-3-1-1-1-1-1-1-|
E|------------------------|

outro
G|------------------------|
D|------------------------|  x4
A|------------------------|
E|4-4-4-4-4-4-4-4-4-4-4-4-|
Suggest correction
Give kudos to tab author, rate the tab!
1 2 3 4 5
comments
print report bad tab
1 comment total.
+1 reply
TaV0 1,974 wrote on April 17 2006, 11:43 pm

en el coro, el último riff va así:

coro
G|------------------------|
D|------------------------| x3
A|------------------------|
E|4-4-4-4-4-4-3-3-3-3-3-3-|

G|------------------------| \ G|--------
D|------------------------| x1 ---------- \ D|--------
A|------------------------| ---------- / A|----6666
E|4-4-4-4-4-4-6-6-6-6-6-6-| / E|4444----

Luis Gustavo Hernández Collado

guest
You may want to rate the tab now too:
select rating
Please do not post tabs as comments. Select "correction" instead!