Oops, an error
Loading. Please wait.

Allergic To Thoughts Of Mother Earth Tab

version 1
version 1

Whole song

Interactive

4,339 views 21 this week
2 commentsread comments
1 2 3 4 5
accurate
x 5
add to favorites
launch autoscroll
font size
0
reset
how to read this tab
guitar tuner
Tab Pro tools
  • play this tab
  • loop segment
  • change instrument
  • show fretboard
  • metronome
×
Best way to learn
"Allergic To Thoughts Of Mother Earth"
Autoscroll
slow
fast
+/-
esc
set tempo
stop
Contributor
-------------------------------------------------------------------------------
           ALLERGIC (TO THOUGHTS OF MOTHER EARTH)- pLACEBO
-------------------------------------------------------------------------------
Tabbed by:Luis Gustavo Hernández Collado
Email:ltavo_87@hotmail.com

Tuning:EADGBe

e|-----------------------------------------|
B|-----------------------------------------|
G|-----------------------------------------|
D|------8888------8888------8888------8888-|
A|-6666-6666-6666-6666-6666-6666-6666-6666-|
E|-4444------4444------4444------4444------|

e|---------------------------------     |
B|---------------------------------     |
G|---------------------------------     |
D|-------------------------8-8-8-8-     |
A|-3-3-3-3---------6-6-6-6---------     |
E|---------4-4-4-4-----------------     |
                                        X2
e|---------------------------------     |
B|---------------------------------     |
G|---------------------------------     |
D|---------------------------------     |
A|-3-3-3-3---------6-6-6-6---------     |
E|---------4-4-4-4---------6-6-6-6-     |

Verses

e|-----------------------------------------|
B|-----------------------------------------|
G|-----------------------------------------|
D|------8888------8888------8888------8888-|
A|-6666-6666-6666-6666-6666-6666-6666-6666-|
E|-4444------4444------4444------4444------|

e|----------|
B|----------|
G|----------|
D|-88888888-
A|-66666666-
E|----------

Chorus

Guitar 1

e|---------------------------------     |
B|---------------------------------     |
G|---------------------------------     |
D|-------------------------8-8-8-8-     |
A|-3-3-3-3---------6-6-6-6---------     |
E|---------4-4-4-4-----------------     |
                                        X2
e|---------------------------------     |
B|---------------------------------     |
G|---------------------------------     |
D|---------------------------------     |
A|-3-3-3-3---------6-6-6-6---------     |
E|---------4-4-4-4---------6-6-6-6-     |

Guitar 2 (optional)

e|------------------|
B|------------------|
G|------------------|  X4
D|------------------|
A|-10101010/8-8-8-8-|
E|-8-8-8-8-/6-6-6-6-|

Interludes

e|-----------------|
B|-----------------|
G|-----------------| X3
D|-6-6-6-6-5-5-5-5-|
A|-6-6-6-6-5-5-5-5-|
E|-4-4-4-4-3-3-3-3-|

e|-----------------|
B|-----------------|
G|-----------------|
D|-6-6-6-6-8-8-888-|
A|-6-6-6-6-6-6-666-|
E|-4-4-4-4---------|

e|------------------|
B|------------------|
G|-------8----------|
D|-6*------8--------|
A|-6*---------------|
E|-4*---------------|

* = let ring

Vote please
comments
print report bad tab
2 comments total.
0 reply
HeavenlyBreeze wrote on October 30 2006, 04:21 pm

Uhhhh... yeah, there is a standard placebo tuning. Try playing Without You I'm Nothing in standard...

Anyway, good tab.

0 reply
karitrevk wrote on August 23 2007, 11:02 pm

I think the ending is different =/... but is a good tab =)

I want to post or [tab]
guest
You may want to rate the tab now too:
select rating
Please do not post tabs as comments. Select "correction" instead!