Oops, an error
Loading. Please wait.

Allergic To Thoughts Of Mother Earth Ukulele Chords

version 1
version 1

Whole song

Interactive

125 views 1 this week
no commentswrite comment
1 2 3 4 5
please rate
add to favorites
launch autoscroll
font size
0
reset
transpose
0
reset
display chords
guitar tuner
Autoscroll
slow
fast
+/-
esc
set tempo
stop
Help us to improve Ultimate-Guitar.com Take our survey!
×
Jep,my verson of Allergic (must be) right!Coz' I played it with the song.But please 
a comment or a mail if something is wrong! THX
(Placebo great band)...if the takt(the strokes) isn't/aren't right.
play the strookes like it sounds to you.

----------------------------Intro-------------------------------------------

  guitar 1:

-4-4-4-4-4-4-4-4--6-6-6-6-6-6-6-6------|
-4-4-4-4-4-4-4-4--6-6-6-6-6-6-6-6------|
-5-5-5-5-5-5-5-5--8-8-8-8-8-8-8-8  <---|play this part all over the song!
-6-6-6-6-6-6-6-6--8-8-8-8-8-8-8-8------|
-6-6-6-6-6-6-6-6--6-6-6-6-6-6-6-6------|
-4-4-4-4-4-4-4-4--6-6-6-6-6-6-6-6------|

guitar one strummes its part 4 times alone then:

  guitar 2:

---------------------------8-8-8-|
-------------------6-6-6-6-------|
-5-5-5-5-5-----------------------|
-----------6-6-6-6---------------|
---------------------------------|
---------------------------------|

-------------------------------------Verse----------------------------------

guitar 1:


-4-4-4-4-4-4-4-4--6-6-6-6-6-6-6-6--------------------------------------------|
-4-4-4-4-4-4-4-4--6-6-6-6-6-6-6-6--------------------------------------------|
-5-5-5-5-5-5-5-5--8-8-8-8-8-8-8-8--------------------------------------------|
-6-6-6-6-6-6-6-6--8-8-8-8-8-8-8-8--------------------------------------------|    4x
-6-6-6-6-6-6-6-6--6-6-6-6-6-6-6-6--------------------------------------------|
-4-4-4-4-4-4-4-4--6-6-6-6-6-6-6-6--------------------------------------------|
------------------------------------Chorus-----------------------------------|

guitar 1:


-4-4-4-4-4-4-4-4--6-6-6-6-6-6-6-6-|
-4-4-4-4-4-4-4-4--6-6-6-6-6-6-6-6-|
-5-5-5-5-5-5-5-5--8-8-8-8-8-8-8-8-|
-6-6-6-6-6-6-6-6--8-8-8-8-8-8-8-8-|
-6-6-6-6-6-6-6-6--6-6-6-6-6-6-6-6-|
-4-4-4-4-4-4-4-4--6-6-6-6-6-6-6-6-|

guitar 2:


---------------------------8-8-8---------------------------8-8-8--|
-------------------6-6-6-6-------------------------6-6-6-6--------|
-5-5-5-5-5-----------------------5-5-5-5-5------------------------|
-----------6-6-6-6-------------------------6-6-6-6----------------|
------------------------------------------------------------------|
------------------------------------------------------------------|

guitar 3:

---------------------------8-8-8----------------------------------|
-------------------6-6-6-6----------------------------------------|
-5-5-5-5-5-----------------------5-5-5-5-5------------------------|
-----------6-6-6-6-------------------------6-6-6-6-5-5-5-5-5-5-5--|
------------------------------------------------------------------|
------------------------------------------------------------------|

the hole thing 2x

----------------------------------------------------------------------------

Verse
----------------------------------------------------------------------------
Chorus (with text)
-------------------------------Brigde---------------------------------------

(''don't let me down'')

-4-4-4-4-4-4-4-4--6-6-6-6-6-6-6-6------------------------------------------------------------------------------|
-4-4-4-4-4-4-4-4--6-6-6-6-6-6-6-6------------------------------------------------------------------------------|
-5-5-5-5-5-5-5-5--8-8-8-8-8-8-8-8------------------------------------------------------------------------------|   4x
-6-6-6-6-6-6-6-6--8-8-8-8-8-8-8-8                                          --6-6-6-6-6-6-6-6--6-6-6-6-6-6-6-6--|
-4-4-4-4-4-4-4-4--6-6-6-6-6-6-6-6------------------------------------------------------------------------------|

------------------------------(Solo)----------------------------------------

-23-20-20-15-15-10-|
-------------------|
-------------------|
-------------------|      2x
-------------------|
-------------------|

other guitar plays any shit

----------------------------------------------------------------------------
Bridge
----------------------------------------------------------------------------
Chorus
----------------------------------------------------------------------------
Solo
----------------------------------------------------------------------------
Ending


13-13-13-13-13-13-13-13-13-13-13-|
13-13-13-13-13-13-13-13-13-13-13-|
---------------------------------|
---------------------------------|
---------------------------------|
---------------------------------|

other guitar: put your hand over the strings and strumm

FIN.


Johannes Debes (guitartrance@web.de)

excuse my bad english :P
Suggest correction new What's this?
You can suggest a correction to this tab. Community and Mods will review your correction and vote to approve or reject it.
comments
We did not receive enough feedback on this tab! Please rate:
print report bad tab
1 2 3 4 5
guest
You may want to rate the tab now too:
select rating
Please do not post tabs as comments. Select "correction" instead!