Oops, an error
Loading. Please wait.

Ashtray Heart Tab

version 1
version 1

Whole song

Interactive

26,359 views 15 this week
no commentswrite comment
1 2 3 4 5
excellent!
x 5
add to favorites
launch autoscroll
font size
0
reset
how to read this tab
guitar tuner
Autoscroll
slow
fast
+/-
esc
set tempo
stop
Help us to improve Ultimate-Guitar.com Take our survey!
×
Author
----------------------------------------------------------------------------
                             ASHTRAY HEART - Placebo
----------------------------------------------------------------------------
Tabbed by: Alex Irae
Email: alexirae@gmail.com

Tuning: (Standard) E A D G B E

Intro:
e|-------------------------------------------|
B|-------------------------------------------|
G|-14-14-14---12-12-12---9-9-9-9-9-9-9-9-----|
D|-------------------------------------------|
A|-12-12-12---10-10-10---7-7-7-7-7-7-7-7-----|
E|-------------------------------------------|

e|------------------------------------------------------|
B|------------------------------------------------------|
G|-17-17---16-16-16---14-14-14---9-9-9-9-9-9-9-9-9-9----|
D|------------------------------------------------------|
A|-15-15---14-14-14---12-12-12---7-7-7-7-7-7-7-7-7-7----|
E|------------------------------------------------------|


Verse: (Palm Muted)
e|---------------------------------------------------------------------|
B|---------------------------------------------------------------------|
G|-5-5-5-5-5-5-5-5-5-5-5-5-5-5-5-5---2-2-2-2-2-2-2-2-2-2-2-2-2-2-2-2---|
D|-5-5-5-5-5-5-5-5-5-5-5-5-5-5-5-5---2-2-2-2-2-2-2-2-2-2-2-2-2-2-2-2---|
A|-3-3-3-3-3-3-3-3-3-3-3-3-3-3-3-3---0-0-0-0-0-0-0-0-0-0-0-0-0-0-0-0---|
E|---------------------------------------------------------------------|


Pre-Chorus:

e|--------0---------------------0-----------|
B|-------------3--1-------------------------|
G|-0-0--0--------------0---0--0---------0---|
D|-3-3-----------------5---5-------2h3------|
A|-3-3-----------------5---5----------------|
E|-1-1-----------------3---3----------------|

Chorus: (Same as intro)

e|-------------------------------------------|
B|-------------------------------------------|
G|-14-14-14---12-12-12---9-9-9-9-9-9-9-9-----|
D|-------------------------------------------|
A|-12-12-12---10-10-10---7-7-7-7-7-7-7-7-----|
E|-------------------------------------------|

e|------------------------------------------------------|
B|------------------------------------------------------|
G|-17-17---16-16-16---14-14-14---9-9-9-9-9-9-9-9-9-9----|
D|------------------------------------------------------|
A|-15-15---14-14-14---12-12-12---7-7-7-7-7-7-7-7-7-7----|
E|------------------------------------------------------|

Bridge:

e|-------------------------------------------------------------------------|
B|-------------------------------------------------------------------------|
G|-------------------------------------------------------------------------|
D|-5-5-5-5-5-5-5-5---3-3-3-3-3-3-3-3---2-2-2-2-2-2-2-2---3-3-3-3-3-3-3-3---|
A|-5-5-5-5-5-5-5-5---3-3-3-3-3-3-3-3---2-2-2-2-2-2-2-2---3-3-3-3-3-3-3-3---|
E|-3-3-3-3-3-3-3-3---1-1-1-1-1-1-1-1---0-0-0-0-0-0-0-0---1-1-1-1-1-1-1-1---|

2nd Guitar Bridge Solo:
e|---------------------------------------------------|
B|---------------------------------------------------|
G|-12-12-12-12-12-12-12-12-12-12-12-12-12-12-12-12---|
D|---------------------------------------------------|
A|---------------------------------------------------|
D|---------------------------------------------------|

e|---------------------------------------------------|
B|----------------------------13-13-------13-13-13---|
G|-12-12-12-12-12-12-12-12-12-------12-12------------|
D|---------------------------------------------------|
A|---------------------------------------------------|
D|---------------------------------------------------|

e|---------------------------------------------------|
B|---------------------------------------------------|
G|-12-12-12-12-12-12-12-12-12-12-12-12-12-12-12-12---|
D|---------------------------------------------------|
A|---------------------------------------------------|
D|---------------------------------------------------|

e|---------------------------------------------------|
B|----------------------------13-13-------13-13-13---|
G|-12-12-12-12-12-12-12-12-12-------12-12------------|
D|---------------------------------------------------|
A|---------------------------------------------------|
D|---------------------------------------------------|

e|------------------------------------------------------------------------|
B|-13/15--15-15-15--13-15--15/17--17-17-17-15-13--13-13-------------------|
G|------------------------------------------------------12-12-12-12-12-12-|
D|------------------------------------------------------------------------|
A|------------------------------------------------------------------------|
D|------------------------------------------------------------------------|

e|-----------------------------|
B|-13-13-------------------13--|
G|-------12-12-12-12-12-12-----|
D|-----------------------------|
A|-----------------------------|
D|-----------------------------|

e|------------------------------------------------------------------|
B|-13/15--15-15-15--13-15--15/17--17-17-17-15-13--13/20--20-20-20---|
G|------------------------------------------------------------------|
D|------------------------------------------------------------------|
A|------------------------------------------------------------------|
D|------------------------------------------------------------------|

e|------------------------------------------------|
B|-13-13-13--13/20-20-20-20-20-20-20--20~---------|
G|------------------------------------------------|
D|------------------------------------------------|
A|------------------------------------------------|
D|------------------------------------------------|

Post-Bridge:
e|------------------------------------------------|
B|------------------------------------------------|
G|------------------------------------------------|
D|-5/7---5-----10----9--7-------------------------|
A|-------------------------7----------------------|
D|------------------------------------------------|

Last Chorus before ending (2nd Guitar):
e|----------------------------------------------------------------------|
B|-----------12-12--13-13--13/17-17-17-17-17-17---13-13-12-12-13-13-----|
G|-14-14-14-------------------------------------------------------------|
D|----------------------------------------------------------------------|
A|----------------------------------------------------------------------|
D|----------------------------------------------------------------------|

e|--------------------------------------------|
B|---10-10-10--12-12--13-12-------------------|
G|--------------------------9-9-9-9-9-9-9-9---|
D|--------------------------------------------|
A|--------------------------------------------|
D|--------------------------------------------|

e|----------------------------------------------------------------------|
B|-----------12-12--13-13--13/17-17-17-17-17-17---13-13-12-12-13-13-----|
G|-14-14-14-------------------------------------------------------------|
D|----------------------------------------------------------------------|
A|----------------------------------------------------------------------|
D|----------------------------------------------------------------------|

e|----------------------------------------------------------|
B|---10-10-10--12-12--13-12---13-13-13-13-13-13-13-13-13----|
G|----------------------------------------------------------|
D|----------------------------------------------------------|
A|----------------------------------------------------------|
D|----------------------------------------------------------|

End:
e|------------------|
B|------------------|
G|------------------|
D|-5----------3-----|
A|-5----------3-----|
D|-3----------1-----|



| /  slide up
| \  slide down
| h  hammer-on
| p  pull-off
| ~  vibrato
| +  harmonic
| x  Mute note
=============================================================================
Suggest correction
comments
print report bad tab
guest
You may want to rate the tab now too:
select rating
Wanna post a correction for this tab? Suggest correction