Oops, an error
Loading. Please wait.

Ask For Answers Tab

version 2
version 2

Whole song

Interactive

3,352 views 3 this week
no commentswrite comment
1 2 3 4 5
please rate
add to favorites
launch autoscroll
font size
0
reset
how to read this tab
guitar tuner
Autoscroll
slow
fast
+/-
esc
set tempo
stop
Help us to improve Ultimate-Guitar.com Take our survey!
×
Author
Title : Ask for Answers
Artist : Placebo
Album : Without you I'm nothing 1998

Tuning : Placebo's tuning (F A# D# G# C C) or just Capo on the first fret.


Intro (Guitar 2-It's acctually a bass but i play in this way, without any) :

**Comes after every strumming of Verse 1

C  |----------------------|
C  |0-1--3-1---0-0h1p0----|
G# |----------------------|
D# |----------------------|
A# |----------------------|
F  |----------------------|


Verse (Guitar 1) :

C  |--0----0----0----------|
C  |--0----0----0----------|
G# |--0----0----0----------|
D# |--5----5----5----------|
A# |--5----3----5----------|
F  |--3---------3----------|


C  |--0-----0----0------0----0------0------0-----|
C  |--0-----0----0------0----0------0------0-----|
G# |--0-----0----0------0----0------5------0-----|
D# |--5-----5----5------5----5------5------5-----|
A# |--5-----3----5------3----5------3------5-----|
F  |--3----------3-----------3-------------3-----|


Chorus (Guitar 1)

C  |-----0--0-0-0--0--------0--0-0-0--0--------              C  |----0---------|
C  |-----0--0-0-0--0--------0--0-0-0--0--------              C  |----0---------|
G# |-----0--0-0-0--11-------0--0-0-0--11-------              G# |----0---------|
D# |-----9--9-9-9--12-------9--9-9-9--12------- X2 And then  D# |----5---------|
A# |-----9--9-9-9--12-------9--9-9-9--12-------              A# |----3---------|
F  |-----7--7-7-7--10-------7--7-7-7--10-------              F  |--------------|

Verse

C  |---------------------------------------------|
C  |---------------------------------------------|
G# |-------0----------0----------0----------0----|
D# |---------------------------------------------| X2
A# |---------------------------------------------|
F  |--5----------3----------5---------3----------|

Lyrics:
*******

Time to pass you to the test. Hanging on my lover's breath.
Always coming second best. Pictures of my lover's chest.
Get through this night, there are no second chances.
This time I might.
To ask the sea for answers.
Always falling to the floor, softer than it was before.
Dog boy - media whore, it's who the hell you take me for.

Give up this fight, there are no second chances.
This time I might.
To ask the sea for answers.
These bonds are shackle free, wrapped in lust and lunacy.
Tiny touch of jealousy, these bonds are shackle free.

Get through this night, there are no second chances.
This time I might.
To ask the sea for answers.
These bonds are shackle free
These bonds are shackle free
These bonds are shackle free
These bonds are shackle free

Get through this, there are no second chances.
This time. To ask the sea for answers.

	I really like this song so I hope you guys enjoy it :-)
	For any comments or Questions pleas Email me at : Peleditay@Gmail.com
Suggest correction
Give kudos to tab author, rate the tab!
1 2 3 4 5
comments
print report bad tab
guest
You may want to rate the tab now too:
select rating
Please do not post tabs as comments. Select "correction" instead!