Oops, an error
Loading. Please wait.

Battle For The Sun Bass Tab

version 1
version 1

Whole song

Interactive

5,572 views 1 this week
no commentswrite comment
1 2 3 4 5
please rate
add to favorites
launch autoscroll
font size
0
reset
guitar tuner
Tab Pro tools
  • play this tab
  • loop segment
  • change instrument
  • show fretboard
  • metronome
×
Best way to learn
"Battle For The Sun"
Autoscroll
slow
fast
+/-
esc
set tempo
stop
Contributor
Difficulty
intermediate
Placebo
Battle For The Sun Bass tab

Email: centahnethebassplayer@gmail.com

Standrd Tuning EADG


G|----------------------------|-------------------|-------------------|
D|----------------------------|-------------------|-------------------|
A|-----------2---------------2|-------------------|----------2--------|
E|---3--3--3---3--3--3--3--3--|-3--3--0--0--0--0--|-0-0-2-3----3-0----|
  
0:01-0:04                      0:05-0:08            0:08-0:11

G|----------------------------|-------------------|-------------------|
D|----------------------------|-------------------|-------------------|
A|-----------2---------------2|-------------------|----------2--------|
E|---3--3--3---3--3--3--3--3--|-3--3--0--0--0--0--|-0-0-2-3----3------|

0:12-0:16                       0:17-0:21           0:22-0:24

G|----------------------------|-------------------|-------------------|
D|----------------------------|-------------------|-------------------|
A|-----------2---------------2|-------------------|----------2--------|
E|---3--3--3---3--3--3--3--3--|-3--3--0--0--0--0--|-0-0-2-3----3-3-0--|

0:25-0:29                      0:30-0:34            0:34-0:36

G|----------------------------|-------------------|-------------------|
D|----------------------------|-------------------|-------------------|
A|-----------2---------------2|-------------------|----------2--------|
E|---3--3--3---3--3--3--3--3--|-3--3--0--0--0--0--|-0-0-2-3----3-3-0--|

0:37-0:42                       0:42-0:46           0:46-0:49

G|----------------------------|-------------------|-------------------|
D|----------------------------|-------------------|-------------------|
A|-----------2---------------2|-------------------|----------2--------|
E|---3--3--3---3--3--3--3--3--|-3--3--0--0--0--0--|-0-0-2-3----3------|

  0:49-0:54                     0:54-0:59          0:59-1:02

G|----------------------------|-------------------|-------------------|
D|----------------------------|-------------------|-------------------|
A|-----------2---------------2|-------------------|----------2--------|
E|---3--3--3---3--3--3--3--3--|-3--3--0--0--0--0--|-0-0-2-3----3------|

   1:02-1:07                     1:07-1:11          1:11-1:14

G|------------------------------------------------|
D|------------------------------------------------|
A|------------------------------------------------|
E|----3333333333333333333333333333333333334-------|


FYI...There is 36 3's there 
   1:15-1:28


G|------------------------------------------------|
D|------------------------------------------------|
A|------------------------------------------------|
E|-0--0--0--0--0--0--0--0--0--0--0--0--0--0--0--0-|

1:28-1:40

G|------------------------------------------------|
D|------------------------------------------------|
A|------------------------------------------------|
E|-0--0--0--0--0--0--0--0--0--0--0--0--0--0--0--0-|

1:40-1:53

G|------------------------------------------------|
D|------------------------------------------------|
A|------------------------------------------------|
E|-0--0--0--0--0--0--0--0--0--0--0--0--0--0--0--0-|

1:53-2:05

G|------------------------------------------------|
D|------------------------------------------------|
A|------------------------------------------------|
E|-0--0--0--0--0--0--0--0--0--0--0--0--0--0--0--0-|

2:05-2:18

G|-----------------------------------------------------|
D|-----------------------------------------------------|
A|-----------------------------------------------------|
E|---33333333333344444444444433333333333333222222222222|

2:18-2:31

G|-----------------------------------------------------|
D|-----------------------------------------------------|
A|-----------------------------------------------------|
E|---33333333333344444444444433333333333333222222222222|

2:31-2:44

G|------------------------------------------------|
D|------------------------------------------------|
A|------------------------------------------------|
E|----3333333333333333333333333333333333334-------|


2:50-2:57

G|----------------------------------------------------------------------|
D|----------------------------------------------------------------------|
A|----------------------------------------------------------------------|
E|----3333333333333333333333333333333333334-4--4--4--4--4--4--4--4--4-33|


2:57-3:10




G|----------------------------------------------------------------------|
D|----------------------------------------------------------------------|
A|----------------------------------------------------------------------|
E|-----2--2--2--2--2--2-2-3-2-4-5-5-5--5--5--5--5--5--5--5-5------------|

3:10-3:22


G|----------------------------------------------------------------------|
D|----------------------------------------------------------------------|
A|----------------------------------------------------------------------|
E|-----2--2--2--2--2--2-2-3-2-4-5-5-5--5--5--5--5--5--5--5-5------------|

3:22-3:35


Verse 1

G|-----------------------------------------------------|
D|-----------------------------------------------------|
A|-----------------------------------------------------|
E|---33333333333344444444444433333333333333222222222222|

G|-----------------------------------------------------|
D|-----------------------------------------------------|
A|-----------------------------------------------------|
E|---33333333333344444444444433333333333333222222222222|

G|-----------------------------------------------------|
D|-----------------------------------------------------|
A|-----------------------------------------------------|
E|---33333333333344444444444433333333333333222222222222|

G|-----------------------------------------------------|
D|-----------------------------------------------------|
A|-----------------------------------------------------|
E|----3333333333333333333333333333333333334------------|

3:35-4:11

G|-------------------------------------|
D|-------------------------------------|
A|-------------------------------------|
E|---333333333333444444444444-2-2-2-222|

4:19-4:26

G|-----------------------------------------------------|
D|-----------------------------------------------------|
A|-----------------------------------------------------|
E|---33333333333344444444444433333333333333222222222222| x 5

4:26-5:13


comments
We did not receive enough feedback on this tab! Please rate:
print report bad tab
1 2 3 4 5
I want to post or [tab]
guest
You may want to rate the tab now too:
select rating
Please do not post tabs as comments. Select "correction" instead!