Oops, an error
Loading. Please wait.

Battle For The Sun Tab

version 2
version 2

Whole song

Interactive

11,758 views 60 this week
2 commentsread comments
1 2 3 4 5
x 5
add to favorites
launch autoscroll
font size
0
reset
how to read this tab
guitar tuner
Autoscroll
slow
fast
+/-
esc
set tempo
stop
Help us to improve Ultimate-Guitar.com Take our survey!
×
Author
Difficulty
intermediate
Artist : Placebo
Song : Battle For The Sun
Album : Battle For The Sun
Tabbed by Daniel Speed (:  (Yes my surname IS funny ;D)

0:00 - 0:50

"I, I, I will battle for the sun, sun, sun,
 and I, I, I won't stop untill I'm done, done, done"

e|---------------------------------------------------------------|
B|---------------------------------------------------------------|
G|---------------------------------------------------------------|
D|--------14----------------15-----------------------------------|
A|-12--12----12--12--12--12----12-11\-8--8--8--8--5-7-8-8--8--10-|
E|-10--10----10--10--10--10----10-12\-6--6--6--6--6-6-6-6--6--11-|

0:51 - 1:14

"You, you, you are getting in the way, way, way,
 and I, I, I have nothing left to say, say, say"

e|------------------------------------------------------------------|
B|------------------------------------------------------------------|
G|------------------------------------------------------------------|
D|--------14-------------------15-----------------------------------|
A|-12--12----12--12-13--12--12----12-11\-8--8--8--8--5-7-8-8--8--10-|
E|-10--10----10--10-----10--10----10-12\-6--6--6--6--6-6-6-6--6--11-|

1:15 - 1:27

e|-------------------------------------------------------------------|
B|-------------------------------------------------------------------|
G|-------------------------------------------------------------------|
D|-----------------------------------------3-3-3-3-------------------|
A|-0-0-0-0-----------------------------------------3-3-3-3-3-3-3-3-3-|
E|---------0-0-0-0-1-1-1-1-3-3-3-3---3-3-3---------------------------|
                                   H - - - - - - - - - - - - - - - -

A second guitar plays these chords

1:15 - 1:27

e|-------------------------------------------------------------------------------------|
B|-------------------------------------------------------------------------------------|
G|-------------------------------------------------------------------------------------|
D|-5-5-5-5-7-7-7-7-8-8-8-8-10-10-10-10-12-12-12-12-12-12-12-12-12-12-12-12-12-12-12-12-|
A|-5-5-5-5-7-7-7-7-8-8-8-8-10-10-10-10-12-12-12-12-12-12-12-12-12-12-12-12-12-12-12-12-|
E|-3-3-3-3-5-5-5-5-6-6-6-6--8--8--8--8-10-10-10-10-10-10-10-10-10-10-10-10-10-10-10-10-|

1:27 - 1:52

"I, I, I, I, I will brush off all the dirt, dirt, dirt, dirt, dirt, dirt ,dirt
 and I, I, I, I, I will pretend it didn't hurt, hurt, hurt, hurt, hurt, hurt, hurt, hurt

e|------------------------------------------------------------------|
B|------------------------------------------------------------------|
G|------------------------------------------------------------------|
D|--------14-------------------15-----------------------------------|
A|-12--12----12--12-13--12--12----12-11\-8--8--8--8--5-7-8-8--8--10-|
E|-10--10----10--10-----10--10----10-12\-6--6--6--6--6-6-6-6--6--11-|

1:53 - 2:18

"You, you, you, you, you are a black and heavy weight, weight, weight, weight, weight, 
weight and
 I, I, I, I, I will not participate, pate, pate, pate, pate, pate, pate, pate"

e|----------------------------------------------------------------------------|
B|----------------------------------------------------------------------------|
G|----------------------------------------------------------------------------|
D|--------14-------------------15-----------0---------------------------------|
A|-12--12----12--12-13--12--12------12-10-8--------8--8--8--8--5-7-8-8--8--10-|
E|-10--10----10--10-----10--10---------------------6--6--6--6--6-6-6-6--6--11-|

2:19 - 2:44

"Dream brother, my killer, my lover
 dream brother, my killer, my lover"

e|-----------------|--|-----------------|--|-----------------|--|-----------------|--|
B|-----------------|--|-----------------|--|-----------------|--|-----------------|--|
G|-----------------|--|-----------------|--|-----------------|--|-----------------|--|
D|-5-5-5-5-5-5-5-5-|--|-3-3-3-3-3-3-3-3-|--|-0-0-0-0-0-0-0-0-|--|-3-3-3-3-3-3-3-3-|--|
A|-3-3-3-3-3-3-3-3-|--|-1-1-1-1-1-1-1-1-|--|-0-0-0-0-0-0-0-0-|--|-1-1-1-1-1-1-1-1-|--|
E|-----------------|x2|-----------------|x2|-----------------|x2|-----------------|x2|

2:45 - 2:50

"I, I, I will battle for the"

e|-----|
B|-----|
G|-----|
D|-3b~-|
A|-1b~-|
E|-----|

2:51 - 2:57

"Sun,sun, sun, sun, cause"

e|-----------------|
B|-----------------|
G|-----------------|
D|-----------------|
A|-5-5-5-5-5-5-5-5-|
E|-6-6-6-6-6-6-6-6-|

2:58 - 3:34

"I, I, I have stared down the barrel of a gun, gun, gun, gun, gun, gun, gun no fun
 You, you, you, you, you are a cheap and nasty fake, fake, fake, fake, fake, fake, fake and
 I, I, I, I, I am the bones you couldn't break, break ,break, break, break, break, 
break!"

e|-------------|--|-----------|--|-------------------------|--|
B|-------------|--|-----------|--|-------------------------|--|
G|-------------|--|-----------|--|-------------------------|--|
D|----------14-|--|---------0-|--|----------15-------------|--|
A|-12-12-12----|--|-12-10-8---|--|-12-12-12----12-12-12-13-|--|
E|-10-10-10----|x6|-----------|x1|-10-10-10----10-10-10----|x4|

3:35 - 4:00


"Dream brother, my killer, my lover
 dream brother, my killer, my lover"

e|-----------------|--|-----------------|--|-----------------|--|-----------------|--|
B|-----------------|--|-----------------|--|-----------------|--|-----------------|--|
G|-----------------|--|-----------------|--|-----------------|--|-----------------|--|
D|-5-5-5-5-5-5-5-5-|--|-3-3-3-3-3-3-3-3-|--|-0-0-0-0-0-0-0-0-|--|-3-3-3-3-3-3-3-3-|--|
A|-3-3-3-3-3-3-3-3-|--|-1-1-1-1-1-1-1-1-|--|-0-0-0-0-0-0-0-0-|--|-1-1-1-1-1-1-1-1-|--|
E|-----------------|x2|-----------------|x2|-----------------|x2|-----------------|x2|

4:01 - 4:20

e|-------------------------------------------------------------------|
B|-------------------------------------------------------------------|
G|-------------------------------------------------------------------|
D|-------------------------------------------3-3-----3-3-3-3-3-3-3-3-|
A|-0-0-0-0-------------------------------3-3-----3-3-----------------|
E|---------0-0-0-0-1-1-1-1-3-3-3-3---3-3-----------------------------|
                                   H - - - - - - - - - - - - - - - -

4:21 - 4:27

e|-------------------------------------------------------------------|
B|-------------------------------------------------------------------|
G|-------------------------------------------------------------------|
D|---------------------------------------------------3-3-3-3-3-3-3-3-|
A|-0-0-0-0-------------------------3-3-3-3-3-3-3-3-3-----------------|
E|---------0-0-0-0-1-1-1-1-3-3-3-3-----------------------------------|
                                 H - - - - - - - - - - - - - - - - -

A second guitar plays these chords

4:01 - 4:27

e|-------------------------------------------------------------------------------------|
B|-------------------------------------------------------------------------------------|
G|-------------------------------------------------------------------------------------|
D|-5-5-5-5-7-7-7-7-8-8-8-8-10-10-10-10-12-12-12-12-12-12-12-12-12-12-12-12-12-12-12-12-|
A|-5-5-5-5-7-7-7-7-8-8-8-8-10-10-10-10-12-12-12-12-12-12-12-12-12-12-12-12-12-12-12-12-|
E|-3-3-3-3-5-5-5-5-6-6-6-6--8--8--8--8-10-10-10-10-10-10-10-10-10-10-10-10-10-10-10-10-|

4:28 - 5:06

"Dream brother, my killer, my lover
 dream brother, my killer, my lover
 dream brother, my killer, my lover"

e|-----------------|--|-----------------|--|-----------------|--|-----------------|--|
B|-----------------|--|-----------------|--|-----------------|--|-----------------|--|
G|-----------------|--|-----------------|--|-----------------|--|-----------------|--|
D|-5-5-5-5-5-5-5-5-|--|-3-3-3-3-3-3-3-3-|--|-0-0-0-0-0-0-0-0-|--|-3-3-3-3-3-3-3-3-|--|
A|-3-3-3-3-3-3-3-3-|--|-1-1-1-1-1-1-1-1-|--|-0-0-0-0-0-0-0-0-|--|-1-1-1-1-1-1-1-1-|--|
E|-----------------|x2|-----------------|x2|-----------------|x2|-----------------|x2|

5:07 - 5:21

 "Dream brother, my killer, my lover"

e|-----------------|--|-----------------|--|-----------------|--|----|--|
B|-----------------|--|-----------------|--|-----------------|--|----|--|
G|-----------------|--|-----------------|--|-----------------|--|----|--|
D|-5-5-5-5-5-5-5-5-|--|-3-3-3-3-3-3-3-3-|--|-0-0-0-0-0-0-0-0-|--|-3~-|--|
A|-3-3-3-3-3-3-3-3-|--|-1-1-1-1-1-1-1-1-|--|-0-0-0-0-0-0-0-0-|--|-1~-|--|
E|-----------------|x2|-----------------|x2|-----------------|x2|----|x1|

5:21 - 5:33

"I, I, I will battle for the sun"

~ = Let Ring
b = Bend Note
H-- = Natural Harmonic
/ = Slide Up
\ = Slide Down
Suggest correction
comments
print report bad tab
2 comments total.
-2 reply
duvanboyd 725 Jul 14, 2009 09:09 PM

almost all the notes are wrong and that's not the tuning...

0 reply
wickedbob 10 Jun 14, 2010 03:46 PM

This is an almost perfect tab, the tuning might be off but its easy to just play it without tuning your guitar to the placebo tuning.

guest
You may want to rate the tab now too:
select rating
Wanna post a correction for this tab? Suggest correction