Oops, an error
Loading. Please wait.

Battle For The Sun Bass Tab

version 3
version 3

Whole song

Interactive

342 views 3 this week
no commentswrite comment
1 2 3 4 5
please rate
add to favorites
launch autoscroll
font size
0
reset
guitar tuner
Autoscroll
slow
fast
+/-
esc
set tempo
stop
Help us to improve Ultimate-Guitar.com Take our survey!
×
Author
Difficulty
intro

G-----------------------|
D-----------------------|
A-----------------------|
E------X---------X------|

BASS ENTER WITH THIS


G-------------------------------------------------------------------|
D-------------------------------------------------------------------|
A-------------5--5--5XX--5-5-5---------------------5--5--5XX--5-5-5-|
E---------------------- XX------6--6--6-X-X6--6--6------------------|


G----------------------------------------------------------------------|
D----------------------------------------------------------------------|
A-5555-7777-8888-10101010-------------------5555-7777-8888-10101010----|
E---------------------------666666666666666----------------------------|


G------------------------------------------------------------------------|
D------------------------------------------------------------------------|
A------------------------------------------------------------------------|
E-666666666666666--------------------------------------------------------|

VERSE 2

G---------------------------------------------------------------------------|
D---------------------------------------------------------------------------|REPEAT UNTIL
A-55555555555555555555555555555555------------------------------------------|THE CHANGE
E -----------------------------------66666666666666666666666666666666-------| COME IN




CHORUS

G--------------------------------------------------------------------|
D--------------------------------------------------------------------|
A--3333333333333333--------------------------------------------------| X2
E--------------------6666666666666666-0--2-3-5-6666666666666666------|

VERSE 3

G-------------------------------------------------------------------------------------|
D-------------------------------------------------------------------------------------|
A--------------------------------------------------55555555555555555555555555555555---|
E-X-X-X-X-X-X-66666666666666666666666666666666----------------------------------------|

G-----------------------------------------------------------------------------|
D-----------------------------------------------------------------------------|
A---7---6---7---6---7---6---7---6---55555555555555555555555555555555----------|
E 66--66--66--66--66--66--66--66----------------------------------------------|

G-----------------------------------------------------------------------------|
D-----------------------------------------------------------------------------|
A---7---6---7---6---7---6---7---6---55555555555555555555555555555555----------|
E 66--66--66--66--66--66--66--66----------------------------------------------|


CHORUS

G--------------------------------------------------------------------|
D--------------------------------------------------------------------|
A--3333333333333333--------------------------------------------------| X2
E--------------------6666666666666666-0--2-3-5-6666666666666666------|


BRIDGE

G--------------------------------------------------------------------------|
D--------------------------------------------------------------------------|
A-5555-7777-8888-10101010-------------------5555-7777-8888-10101010--------|
E---------------------------666666666666666--------------------------------|

                                            X2
G------------------------------------------------------------------------|
D------------------------------------------------------------------------|
A------------------------------------------------------------------------|
E-666666666666666--------------------------------------------------------|

REPEAT BUT IN THE FINAL IS
G--------------------------------------------------------------------------|
D--------------------------------------------------------------------------|
A-------------------121212121212121212121212121212-------------------------|
E--------------------------------------------------------------------------|

OUTRO
G--------------------------------------------------------------------|
D--------------------------------------------------------------------|
A--3333333333333333--------------------------------------------------| X4
E--------------------6666666666666666-0--2-3-5-6666666666666666------|

FINISH IN
G-------------|
D-------------|
A-------------|
E------6------|
Suggest correction
Give kudos to tab author, rate the tab!
1 2 3 4 5
comments
print report bad tab
guest
You may want to rate the tab now too:
select rating
Please do not post tabs as comments. Select "correction" instead!