Oops, an error
Loading. Please wait.

Because I Want You Tab

version 2
version 2

Whole song

Interactive

10,017 views 9 this week
2 commentsread comments
1 2 3 4 5
excellent!
x 5
add to favorites
launch autoscroll
font size
0
reset
how to read this tab
guitar tuner
Autoscroll
slow
fast
+/-
esc
set tempo
stop
Help us to improve Ultimate-Guitar.com Take our survey!
×
Author
Tuning standard

part 1

\5-5-5-555-5-5-555-5-5-555-5-5-55-|
\6-6-6-666-6-6-666-6-6-666-6-6-66-|
\---------------------------------|
\---------------------------------|
\---------------------------------|
\---------------------------------|

part 2

\--------------------------------------------------------------------|
\--------------------------------------------------------------------|
\7-7-7-7-7-7-7-7-7-7-7-7-10-10-10-10-5-5-5-5-5-5-5-5-5-5-5-5-5-5-5-5-|
\7-7-7-7-7-7-7-7-7-7-7-7-10-10-10-10-5-5-5-5-5-5-5-5-5-5-5-5-5-5-5-5-|
\5-5-5-5-5-5-5-5-5-5-5-5-8--8--8--8--3-3-3-3-3-3-3-3-3-3-3-3-3-3-3-3-|
\--------------------------------------------------------------------|

part 3

\--------------------------------|
\6-6-6-6-6-6-6-6-6-6-6-6-6-6-6-6-|
\--------------------------------|
\--------------------------------|
\--------------------------------|
\--------------------------------|

part 4

\----------------------------------------------------------------|
\----------------------------------------------------------------|
\----------------------------------------------------------------|
\0-0-0-2-2-2-3-3-3-5-5-5-7-7-5-5-0-0-0-2-2-2-3-3-3-5-5-5-6-6-5-5-|
\----------------------------------------------------------------|
\----------------------------------------------------------------|

part 5

\------0-0-0-1-1-1-3-3-3-5-5-3-3-------0-0-0-1-1-1-3-3-3-5-5-3-3-|
\3-3-3---------------------------3-3-3---------------------------|
\----------------------------------------------------------------|
\----------------------------------------------------------------|
\----------------------------------------------------------------|
\----------------------------------------------------------------|

part 6

\--------------------------------------------------------------------------------|
\--------------------------------------------------------------------------------|
\--------------------------------------------------------------------------------|
\10-10-10-10-10-10-10-10-10-10-10-10-10-10-10-10-7-7-7-7-7-7-7-7-7-7-7-7-7-7-7-7-|
\8--8--8--8--8--8--8--8--8--8--8--8--8--8--8--8--5-5-5-5-5-5-5-5-5-5-5-5-5-5-5-5-|
\--------------------------------------------------------------------------------|

part 7

\----------------------------------------------------------------|
\6-6-6-6-6-6-6-6-6-6-6-6-6-6-6-6-3-3-3-3-3-3-3-3-3-3-3-3-3-3-3-3-|
\----------------------------------------------------------------|
\----------------------------------------------------------------|
\----------------------------------------------------------------|
\----------------------------------------------------------------|

part 8

\------------------------------------------------------------------------|
\------------------------------------------------------------------------|
\10-10-10-10-10-10-10-10-9-9-9-9-9-9-9-9-5-5-5-5-5-5-5-5-7-7-7-7-7-7-7-7-|
\10-10-10-10-10-10-10-10-9-9-9-9-9-9-9-9-5-5-5-5-5-5-5-5-7-7-7-7-7-7-7-7-|
\8--8--8--8--8--8--8--8--7-7-7-7-7-7-7-7-3-3-3-3-3-3-3-3-5-5-5-5-5-5-5-5-|
\------------------------------------------------------------------------|


Order:
1, 2, 1, 2, 3, 2, 4, 5, 6, 3, 2, 3, 2, 7, 2, 4, 5, 6, 8, 8, 1, 4, 3, 4, 8, 8,
8, 8,

Then the end chord

\1---
\x---
\x---
\3---
\3---
\1---

this took me aaaages n i think its right email me if not :) enjoy tho!
Suggest correction new What's this?
You can suggest a correction to this tab. Community and Mods will review your correction and vote to approve or reject it.
comments
print report bad tab
2 comments total.
0 reply
deargtiogar 35 wrote on December 12 2006, 05:03 pm

Great tab!

0 reply
Raido 44 wrote on March 1 2009, 03:14 pm

really good job...;] it's good that u posted the order =]

guest
You may want to rate the tab now too:
select rating
Please do not post tabs as comments. Select "correction" instead!