Oops, an error
Loading. Please wait.

Because I Want You Tab

version 3
version 3

Whole song

Interactive

3,056 views 1 this week
no commentswrite comment
1 2 3 4 5
excellent!
x 1
add to favorites
launch autoscroll
font size
0
reset
how to read this tab
guitar tuner
Tab Pro tools
  • play this tab
  • loop segment
  • change instrument
  • show fretboard
  • metronome
Autoscroll
slow
fast
+/-
esc
set tempo
stop
Contributor
-------------------------------------------------------------------------------
                             BECAUSE I WANT YOU - Placebo
-------------------------------------------------------------------------------
Tabbed by:Luis Gustavo Hernández Collado
Email:ltavo_87@hotmail.com

Tuning:EADGBe

Intro/Verse 1
(fall into you, is all i seem to do...)
e|-------------------------|
B|-10-10-10-10-10-10-10-10-|
G|-10-10-10-10-10-10-10-10-|
D|-------------------------|
A|-------------------------|
E|-------------------------|

(...when I hit the bottle, 'cause I'm afraid to be alone...)
e|----------------------------------|
B|----------------------------------|
G|-777777-101010101010-555555555555-|
D|-777777-101010101010-555555555555-|
A|-555555-8-8-8-8-8-8--333333333333-|
E|----------------------------------|

(...tear us in two, is all it seems to do...)
e|-------------------------|
B|-10-10-10-10-10-10-10-10-|
G|-10-10-10-10-10-10-10-10-|
D|-------------------------|
A|-------------------------|
E|-------------------------|

(...as the anger fades, this house is no longer a home...)
e|----------------------------------|
B|----------------------------------|
G|-777777-101010101010-555555555555-|
D|-777777-101010101010-555555555555-|
A|-555555-8-8-8-8-8-8--333333333333-|
E|----------------------------------|

(...don't give up on the dream, don't give up on the wanting...)
e|-------------------------|
B|-------------------------|
G|-10-10-10-10-10-10-10-10-|
D|-------------------------|
A|-------------------------|
E|-------------------------|

(...and everything that's true...)
e|----------------------------------|
B|----------------------------------|
G|-777777-101010101010-555555555555-|
D|-777777-101010101010-555555555555-|
A|-555555-8-8-8-8-8-8--333333333333-|
E|----------------------------------|

(...don't give up on the dream, don't give up on the wanting...)
e|-------------------------------------------------|
B|-------------------------------------------------|
G|-7-7-7-9-9-9-10-10-10-12-12-12-14-14-14-12-12-12-| X4
D|-x-x-x-x-x-x-x--x--x--x--x--x--x--x--x--x--x--x--|
A|-5-5-5-7-7-7-8--8--8--10-10-10-12-12-12-10-10-10-|
E|-------------------------------------------------|

Chorus 1
(...because i want you too, 'cause i want you too...)
e|--------------------------|
B|--------------------------|
G|--------------------------| X2
D|-101010101010101077777777-|
A|-8-8-8-8-8-8-8-8-55555555-|
E|--------------------------|

Verse 2
(...stumble into you, is all I ever do...)
e|-15-----17----15----17----|
B|----15-----15----15----15-|
G|--------------------------|
D|--------------------------|
A|--------------------------|
E|--------------------------|

(...my memory is hazy and I'm afraid to be alone...)
e|----------------------------------|
B|----------------------------------|
G|-777777-101010101010-555555555555-|
D|-777777-101010101010-555555555555-|
A|-555555-8-8-8-8-8-8--333333333333-|
E|----------------------------------|

(...tear us in two, is all it's gonna do...)
e|-15-----17----15----17----|
B|----15-----15----15----15-|
G|--------------------------|
D|--------------------------|
A|--------------------------|
E|--------------------------|

(as the headache fades, this mouse is no longer a home...)
e|----------------------------------|
B|----------------------------------|
G|-777777-101010101010-555555555555-|
D|-777777-101010101010-555555555555-|
A|-555555-8-8-8-8-8-8--333333333333-|
E|----------------------------------|

(...don't give up on the dream, don't give up on the wanting...)
e|-15-----17----15----17----|
B|----15-----15----15----15-|
G|--------------------------|
D|--------------------------|
A|--------------------------|
E|--------------------------|

(...and everything that's true...)
e|----------------------------------|
B|----------------------------------|
G|-777777-101010101010-555555555555-|
D|-777777-101010101010-555555555555-|
A|-555555-8-8-8-8-8-8--333333333333-|
E|----------------------------------|

(...don't give up on the dream, don't give up on the wanting...)
e|-------------------------------------------------|
B|-------------------------------------------------|
G|-7-7-7-9-9-9-10-10-10-12-12-12-14-14-14-12-12-12-| X4
D|-x-x-x-x-x-x-x--x--x--x--x--x--x--x--x--x--x--x--|
A|-5-5-5-7-7-7-8--8--8--10-10-10-12-12-12-10-10-10-|
E|-------------------------------------------------|

Chorus 2
(...because i want you too, 'cause i want you too...)
e|--------------------------|
B|--------------------------|
G|--------------------------| X4
D|-101010101010101077777777-|
A|-8-8-8-8-8-8-8-8-55555555-|
E|--------------------------|

Verse 3/Interlude
(...fall into you, is all I ever do...)
e|-------------------------|
B|-10-10-10-10-10-10-10-10-|
G|-10-10-10-10-10-10-10-10-|
D|-------------------------|
A|-------------------------|
E|-------------------------|

(...when I hit the bottle 'cause I'm afraid to be alone...)
e|-------------------------------------------------|
B|-------------------------------------------------|
G|-7-7-7-9-9-9-10-10-10-12-12-12-14-14-14-12-12-12-| X6
D|-x-x-x-x-x-x-x--x--x--x--x--x--x--x--x--x--x--x--|
A|-5-5-5-7-7-7-8--8--8--10-10-10-12-12-12-10-10-10-|
E|-------------------------------------------------|

Chorus 3/Outro
(...because i want you too, 'cause i want you...)
e|--------------------------|
B|--------------------------|
G|--------------------------| X4
D|-101010101010101077777777-|
A|-8-8-8-8-8-8-8-8-55555555-|
E|--------------------------|

e|----|
B|----|
G|----|
D|-10-|
A|-8--|
E|----|
comments
We did not receive enough feedback on this tab! Please rate:
print report bad tab
1 2 3 4 5
I want to post or [tab]
guest
You may want to rate the tab now too:
select rating
Please do not post tabs as comments. Select "correction" instead!