Oops, an error
Loading. Please wait.

Begin The End Tab

version 1
version 1

Intro

Whole song

by Placebo
5,741 views 6 this week
no commentswrite comment
1 2 3 4 5
3 more votes to show rating
add to favorites
launch autoscroll
font size
0
reset
how to read this tab
guitar tuner
×
Best way to learn
"Begin The End"
Autoscroll
slow
fast
+/-
esc
set tempo
stop
Author
Tuning
E A D G B E
C -------11--11--------11--11--------11--11--------11--11---|
C -----10------10----10--10--10----10------10----10--10--10-|
G#-------------------------------------------10-------------|
Eb-8-------------8-------------8----------------------------|
Bb----------------------------------------------------------|
F ----------------------------------------------------------|

C -------11--11--------11--11--------11--11--------11--11---|
C -----10------10----10--10--10----10------10----10--10--10-|
G#-0-------------0-------------0-------------7--------------|
Eb----------------------------------------------------------|
Bb----------------------------------------------------------|
F ----------------------------------------------------------|
Suggest correction
Give kudos to tab author, rate the tab!
1 2 3 4 5
comments
print report bad tab
guest
You may want to rate the tab now too:
select rating
Wanna post a correction for this tab? Suggest correction