Oops, an error
Loading. Please wait.

Begin The End tab

version 1
version 1

Whole song

by Placebo
6,804 views 39 this week
3 commentsread comments
1 2 3 4 5
x 7
add to favorites
×
Save as Personal and add changes to this tab that will be seen only by you. Learn more ›
×
You can save this tab as Personal to edit and correct it or add notes. All changes will be seen only by you. Learn more »
launch autoscroll
font size
0
reset
how to read this tab
guitar tuner
edit
Autoscroll
slow
fast
+/-
esc
set tempo
stop
-------------------------------------------------------------------------------
                             Begin The End - Placebo
-------------------------------------------------------------------------------
Tabbed by: Roman K.
E-mail: gits007@gmail.com

Tuning: BBGDAE

Chords:

E    02210x
G#m  46644x
B    22444x
D#   66888x
C#m  x4665x



Intro: [x2]

B|--------12--12-----------12--12-----------12--12----------12--12--|
B|------11------11-------11------11-------11------11------11------11|
G|--------------------------------------------------11--------------|
D|9---------------9----------------9--------------------------------|
A|------------------------------------------------------------------|
E|------------------------------------------------------------------|

B|--------12--12-----------12--12-----------12--12----------12--12--| 
B|------11------11-------11------11-------11------11------11------11|
G|--------------------------------------------------8---------------|
D|------------------------------------------------------------------|
A|11--------------11---------------11-------------------------------|
E|------------------------------------------------------------------|


Verse:

   Look me in the eyes, say that again.
B|--------12--12-----------12--12-----------12--12----------12--12--|
B|------11--11--11-------11--11--11-------11--11--11------11--11--11|
G|--------------------------------------------------11--------------|
D|9---------------9----------------9--------------------------------|
A|------------------------------------------------------------------|
E|------------------------------------------------------------------|

   Take me to your chest, and let me in.
B|--------12--12-----------12--12-----------12--12----------12--12--| 
B|------11------11-------11------11-------11------11------11------11|
G|--------------------------------------------------8---------------|
D|------------------------------------------------------------------|
A|11--------------11---------------11-------------------------------|
E|------------------------------------------------------------------|

Give me mouth-to-mouth, and make amends.
Knock me off my feet like heroin.
No need to disguise or to pretend.
Don't misconstrue and don't misapprehend.
There's nothing left, no fortress, to defend.
And tonight's the night that we begin the end.


Chorus:

  E G#m [x2]


You and I kept looking to transcend.
The fact that I was breaking to your bend.
But this is now, and, sadly, that was then.
And tonight's the night that we begin the end.


          E                   G#m
  And I tried, God knows, I tried.
                                   E
  There's you can do to change my mind.
                              G#m
  And I tried, God knows, I tried.
                                           H
  There's nothing you can do to change my mind.
                                     G#m
  And I don't enjoy to watch you crumble,

  I don't enjoy to watch you cry.
   D#
  Make no mistake. [x2]


Look me in the eyes, say that again.
Blame me for the sorry state you're in.
It's not my fault if you can't comprehend
that tonight's the night that we begin the end.

      E                   G#m
  I tried, God knows, I tried,
                                               E
  but there's nothing you can do to change my mind.
                          G#m
  I tried, God knows, I tried,
                                               C#m
  but there's nothing you can do to change my mind.
                                 G#m                                 C#m
  I don't enjoy to watch you crumble! I don't enjoy to watch you cry.
                                 G#m
  I don't enjoy to watch you crumble! I don't enjoy to watch you cry.  
 
  Make no mistake.
              E
  Make no mistake.


Look me in the eye, say that again.

            
            
Suggest correction
Creating personal tab
Creating personal tab
You can edit any tab online and save it as your Personal.

You can edit, replace or remove any tab part or add personal notes – all changes will be seen only by you.

Personal tabs can be accessed anytime from any device, even offline.
Learn more »
comments
print report bad tab
3 comments total.
0 reply
willou007 10 Feb 12, 2015 08:23 AM

Good tab, but I think the intro alternates between

B-----12-12-------------
B---11-----11-----------

B-----12--12------------
B---11--11--11----------

on the high strings. Just listen to the song to here where. Might be in the verse too.

0 reply
david.lepahe 10 Aug 18, 2017 12:04 PM

Lol wtf is a H chord?!

0 reply
david.lepahe 10 Aug 18, 2017 12:10 PM

He adds the alternative pattern in the verse

guest
You may want to rate the tab now too:
select rating
Wanna post a correction for this tab? Suggest correction