Oops, an error
Loading. Please wait.

Begin The End Tab

version 1
version 1

Whole song

4,716 views 60 this week
1 commentread comment
1 2 3 4 5
accurate
x 4
add to favorites
launch autoscroll
font size
0
reset
how to read this tab
guitar tuner
Autoscroll
slow
fast
+/-
esc
set tempo
stop
Help us to improve Ultimate-Guitar.com Take our survey!
×
Author
Difficulty
Tuning
intermediate
D# G# C# F# A# D#
-------------------------------------------------------------------------------
                             Begin The End - Placebo
-------------------------------------------------------------------------------
Tabbed by: Roman K.
E-mail: gits007@gmail.com

Tuning: BBGDAE

Chords:

E    02210x
G#m  46644x
H    22444x
D#   66888x
C#m  x4665x



Intro: [x2]

B|--------12--12-----------12--12-----------12--12----------12--12--|
B|------11--11--11-------11--11--11-------11--11--11------11--11--11|
G|--------------------------------------------------11--------------|
D|9---------------9----------------9--------------------------------|
A|------------------------------------------------------------------|
E|------------------------------------------------------------------|

B|--------12--12-----------12--12-----------12--12----------12--12--| 
B|------11--11--11-------11--11--11-------11--11--11------11--11--11|
G|--------------------------------------------------8---------------|
D|------------------------------------------------------------------|
A|11--------------11---------------11-------------------------------|
E|------------------------------------------------------------------|


Verse:

  Look me in the eyes, say that again.
B|--------12--12-----------12--12-----------12--12----------12--12--|
B|------11--11--11-------11--11--11-------11--11--11------11--11--11|
G|--------------------------------------------------11--------------|
D|9---------------9----------------9--------------------------------|
A|------------------------------------------------------------------|
E|------------------------------------------------------------------|

  Take me to your chest, and let me in.
B|--------12--12-----------12--12-----------12--12----------12--12--| 
B|------11--11--11-------11--11--11-------11--11--11------11--11--11|
G|--------------------------------------------------8---------------|
D|------------------------------------------------------------------|
A|11--------------11---------------11-------------------------------|
E|------------------------------------------------------------------|

Give me mouth-to-mouth, and make amends.
Knock me off my feet like heroin.
No need to disguise or to pretend.
Don't misconstrue and don't misapprehend.
There's nothing left, no fortress, to defend.
And tonight's the night that we begin the end.


Chorus:

  E G#m [x2]


You and I kept looking to transcend.
The fact that I was breaking to your bend.
But this is now, and, sadly, that was then.
And tonight's the night that we begin the end.


          E                   G#m
  And I tried, God knows, I tried.
                                   E
  There's you can do to change my mind.
                              G#m
  And I tried, God knows, I tried.
                                           H
  There's nothing you can do to change my mind.
                                     G#m
  And I don't enjoy to watch you crumble,

  I don't enjoy to watch you cry.
   D#
  Make no mistake. [x2]


Look me in the eyes, say that again.
Blame me for the sorry state you're in.
It's not my fault if you can't comprehend
that tonight's the night that we begin the end.

      E                   G#m
  I tried, God knows, I tried,
                                               E
  but there's nothing you can do to change my mind.
                          G#m
  I tried, God knows, I tried,
                                               C#m
  but there's nothing you can do to change my mind.
                                 G#m                                 C#m
  I don't enjoy to watch you crumble! I don't enjoy to watch you cry.
                                 G#m
  I don't enjoy to watch you crumble! I don't enjoy to watch you cry.  
 
  Make no mistake.
              E
  Make no mistake.


Look me in the eye, say that again.
Suggest correction
comments
print report bad tab
1 comment total.
0 reply
willou007 10 wrote on February 12 2015, 01:23 pm

Good tab, but I think the intro alternates between

B-----12-12-------------
B---11-----11-----------

B-----12--12------------
B---11--11--11----------

on the high strings. Just listen to the song to here where. Might be in the verse too.

guest
You may want to rate the tab now too:
select rating
Wanna post a correction for this tab? Suggest correction