Oops, an error
Loading. Please wait.

Bitter End Bass Tab

version 1
version 1

Whole song

Interactive

1,973 views 36 this week
no commentswrite comment
1 2 3 4 5
excellent!
x 3
add to favorites
launch autoscroll
font size
0
reset
guitar tuner
Tab Pro tools
  • play this tab
  • loop segment
  • change instrument
  • show fretboard
  • metronome
Autoscroll
slow
fast
+/-
esc
set tempo
stop
Difficulty
intermediate
G |----------------|----------------|----------------|----------------|
D |----------------|----------------|----------------|----------------|
A |----------------|----------------|----------------|----------------|
E |----------------|----------------|----------------|----------------|

0.10: 2x (VERSE 1)

G |----------------|----------------|----------------|----------------|
D |1111111111111111|111111111111111-|----------------|----------------|
A |----------------|---------------1|2222222222222222|2222222222222222|
E |----------------|----------------|----------------|----------------|

0.31: 1X
G |----------------|----------------|----------------|----------------|
D |1111111111111111|11111111111111--|----------------|----------------|
A |----------------|--------------11|2222222222222222|2222222222222211|
E |----------------|----------------|----------------|----------------|


0.41: 1X
G |----------------|----------------|----------------|----------------|
D |1111111111111111|111111111111111-|----------------|----------------|
A |----------------|---------------1|2222222222222222|2222222222222111|
E |----------------|----------------|----------------|----------------|

0.52: 1X (CHORUS 1)
G |----------------|----------------|----------------|----------------|
D |1111111111111111|111111111111111-|----------------|----------------|
A |----------------|---------------1|2222222222222222|2222222222222211|
E |----------------|----------------|----------------|----------------|

1.02: 1X 
G |----------------|----------------|----------------|----------------|
D |1111111111111111|111111111111111-|----------------|-----------44444|
A |----------------|---------------1|2222222222222222|22222222222-----|
E |----------------|----------------|----------------|----------------|

1.12: 1X (VERSE 2)
G |----------------|----------------|----------------|----------------|
D |1111111111111111|111111111111111-|----------------|----------------|
A |----------------|---------------1|2222222222222222|2222222222222111|
E |----------------|----------------|----------------|----------------|

1:23: 1X
G |----------------|----------------|----------------|----------------|
D |1111111111111111|1111111111111344|--------444333--|-------------4444|
A |----------------|----------------|22222222------22|22222222222/6---|
E |----------------|----------------|----------------|----------------|

1.33: 1X
G |----------------|----------------|----------------|----------------|
D |1111111111111111|111111111111111-|----------------|----------------|
A |----------------|---------------1|2222222222222222|2222222222211x4-|
E |----------------|----------------|----------------|----------------|

1.43: 1X
G |----------------|----------------|----------------|----------------|
D |1111111111111111|111111111144444 |--------4443----|----------------|
A |----------------|---------------1|22222222----2222|2222222222222222|
E |----------------|----------------|----------------|----------------|

1.54: 2X (CHORUS 2)
G |----------------|----------------|----------------|----------------|
D |----------------|----------------|----------------|----------------|
A |----------------|----------------|----------------|----------------|
E |----------------|----------------|----------------|----------------|

2.14: 1X
G |----------------|----------------|----------------|----------------|
D |1111111111111111|111111111111111-|----------------|----------------|
A |----------------|---------------1|2222222222222222|2222222222222---|
E |----------------|----------------|----------------|-------------111|

2.25: 1X
G |----------------|----------------|----------------|----------------|
D |1111111111111111|1111111111133444|----------------|----------------|
A |----------------|----------------|2222222222222222|2222222222222211|
E |----------------|----------------|----------------|----------------|

2.35: 1X (endless time....)
G |----------------|----------------|----------------|----------------|
D |1111111111111111|111111111111111-|----------------|----------------|
A |----------------|---------------1|2222222222222222|2222222222222111|
E |----------------|----------------|----------------|----------------|

2.45: 1X
G |----------------|----------------|----------------|----------------|
D |1111111111111111|111111111111111-|----------------|----------------|
A |----------------|---------------1|2222222222222222|2222222222222444|
E |----------------|----------------|----------------|----------------|


2.56: 1X
G |----------------|----------------|----------------|----------------|
D |----------------|--------1111111-|----------------|----------------|
A |----------------|---------------1|2222222222222222|2222222222222111|
E |----------------|----------------|----------------|----------------|
B |4444444444444444444444444--------|<- May drop E string 1/2 tone (D#) for that and play 0

3.06: 1X
G |----------------|----------------|----------------|----------------|
D |1---------------|----------------|----------------|----------------|
A |----------------|----------------|----------------|----------------|
E |----------------|----------------|----------------|----------------|
comments
We did not receive enough feedback on this tab! Please rate:
print report bad tab
1 2 3 4 5
I want to post or [tab]
guest
You may want to rate the tab now too:
select rating
Please do not post tabs as comments. Select "correction" instead!