Oops, an error
Loading. Please wait.

Bitter End Tab

version 2
version 2

Whole song

Interactive

8,054 views 33 this week
no commentswrite comment
1 2 3 4 5
accurate
x 5
add to favorites
launch autoscroll
font size
0
reset
how to read this tab
guitar tuner
Tab Pro tools
  • play this tab
  • loop segment
  • change instrument
  • show fretboard
  • metronome
×
Best way to learn
"Bitter End"
Autoscroll
slow
fast
+/-
esc
set tempo
stop
Contributor
Capo
1st fret
Song:   The Bitter End
Artist: Placebo
Album:  Sleeping With Ghosts
Tabbed By: Indie_Nation
Tuning: F Bb Eb Ab C C (DADGBB + Capo on 1st fret)


Intro 
|-5---5-5-|
|-6---6-6-|
|-7---7-7-|
|---------|
|---------|
|---------|


Verse (whole section x4)

|-5------5---5-----5------5---5-|-5------5---5-----5------5---5-|
|-6------6---6-----6------6---6-|-6------6---6-----6------6---6-|
|-7------7---7-----7------7---7-|-7------7---7-----7------7---7-|
|-------------------------------|-------------------------------|
|-------------------------------|-------------------------------|
|-------------------------------|-------------------------------|

|------------------------------------------------|
|13-13-13-13-13-13-13-13-11-11-11-11-11-11-11-11-|
|------------------------------------------------|
|10-10-10-10-10-10-10-10--8--8--8--8--8--8--8--8-|
|------------------------------------------------|
|------------------------------------------------|

|------------------------------------------------|
|-10-10-10-10-10-10-10-10-8--8--8--8--8--8--8--8-|
|------------------------------------------------|
|-7--7--7--7--7--7--7--7--5--5--5--5--5--5--5--5-|
|------------------------------------------------|
|------------------------------------------------|

Chorus (whole section x2)

|------------------------------------|
|------------------------------------|
|10-10-10-10--10-10---9-9-9-9---9-9--|
|------------------------------------|
|-8--8--8--8---8--8---7-7-7-7---7-7--|
|------------------------------------|

--------------------------------|
--------------------------------|
-7-7-7-7--7-7---5-5-5-5---5-5/--|
--------------------------------|
-5-5-5-5--5-5---3-3-3-3---3-3/--|
--------------------------------|

|---------------------------------------|
|13-13-13-13--13-13--11-11-11-11--11-11-|
|---------------------------------------| 
|10-10-10-10--10-10---8--8--8--8---8--8-|
|---------------------------------------|
|---------------------------------------|

|--------------------------------------|
|-10-10-10-10---10-10---8-8-8-8---8-8--|
|--------------------------------------|
|--7--7--7--7----7--7---5-5-5-5---5-5--|
|--------------------------------------|
|--------------------------------------|


Verse (whole section x 4)

|-5------5---5-----5------5---5-|-5------5---5-----5------5---5-|
|-6------6---6-----6------6---6-|-6------6---6-----6------6---6-|
|-7------7---7-----7------7---7-|-7------7---7-----7------7---7-|
|-------------------------------|-------------------------------|
|-------------------------------|-------------------------------|
|-------------------------------|-------------------------------|


|------------------------------------------------|
|13-13-13-13-13-13-13-13-11-11-11-11-11-11-11-11-|
|------------------------------------------------|
|10-10-10-10-10-10-10-10--8--8--8--8--8--8--8--8-|
|------------------------------------------------|
|------------------------------------------------|

|------------------------------------------------|
|-10-10-10-10-10-10-10-10-8--8--8--8--8--8--8--8-|
|------------------------------------------------|
|-7--7--7--7--7--7--7--7--5--5--5--5--5--5--5--5-|
|------------------------------------------------|
|------------------------------------------------|

Bridge (whole section x 2) 
|------------------------------------|
|------------------------------------|
|10-10-10-10--10-10---9-9-9-9---9-9--|
|------------------------------------|
|-8--8--8--8---8--8---7-7-7-7---7-7--|
|------------------------------------|

--------------------------------|
--------------------------------|
-7-7-7-7--7-7---5-5-5-5---5-5/--|
--------------------------------|
-5-5-5-5--5-5---3-3-3-3---3-3/--|
--------------------------------|

|---------------------------------------|
|13-13-13-13--13-13--11-11-11-11--11-11-|
|---------------------------------------| 
|10-10-10-10--10-10---8--8--8--8---8--8-|
|---------------------------------------|
|---------------------------------------|

|--------------------------------------|
|-10-10-10-10---10-10---8-8-8-8---8-8--|
|--------------------------------------|
|--7--7--7--7----7--7---5-5-5-5---5-5--|
|--------------------------------------|
|--------------------------------------|

|------------------------------------|
|------------------------------------|
|10-10-10-10--10-10---9-9-9-9---9-9--|
|------------------------------------|
|-8--8--8--8---8--8---7-7-7-7---7-7--|
|------------------------------------|

--------------------------------|
--------------------------------|
-7-7-7-7--7-7---5-5-5-5---5-5/--|
--------------------------------|
-5-5-5-5--5-5---3-3-3-3---3-3/--|
--------------------------------|

|---------------------------------------|
|13-13-13-13--13-13--11-11-11-11--11-11-|
|---------------------------------------| 
|10-10-10-10--10-10---8--8--8--8---8--8-|
|---------------------------------------|
|---------------------------------------|

|--------------------------------------|
|-10-10-10-10---10-10---8-8-8-8---8-8--|
|--------------------------------------|
|--7--7--7--7----7--7---5-5-5-5---5-5--|
|--------------------------------------|
|--------------------------------------|

Chorus (whole section x 4)

|------------------------------------|
|------------------------------------|
|10-10-10-10--10-10---9-9-9-9---9-9--|
|------------------------------------|
|-8--8--8--8---8--8---7-7-7-7---7-7--|
|------------------------------------|

--------------------------------|
--------------------------------|
-7-7-7-7--7-7---5-5-5-5---5-5/--|
--------------------------------|
-5-5-5-5--5-5---3-3-3-3---3-3/--|
--------------------------------|

|---------------------------------------|
|13-13-13-13--13-13--11-11-11-11--11-11-|
|---------------------------------------| 
|10-10-10-10--10-10---8--8--8--8---8--8-|
|---------------------------------------|
|---------------------------------------|

|--------------------------------------|
|-10-10-10-10---10-10---8-8-8-8---8-8--|
|--------------------------------------|
|--7--7--7--7----7--7---5-5-5-5---5-5--|
|--------------------------------------|
|--------------------------------------|


Outro

[2:35] Tremelo       [2:45] Tremelo     [2:50] Tremelo
|-----------------|  |-----------------||--------------|
|-----------------|  |-----------------||--------------|
|-7++++++++-------|  |-10++++----------||-11++++-------|
|-----------------|  |-----------------||--------------|
|-5++++++++-------|  |--7++++----------||--8++++-------|
|-----------------|  |-----------------||--------------|

 Tremelo        
|--------------|-------------|-------------|-------------|-------------|
|-15++++-17-17-|-18-18-17-17-|-18-18-17-17-|-18-18-17-17-|-18-18-17-17-|
|--------------|-------------|-------------|-------------|-------------|
|-12++++-14-14-|-15-15-14-14-|-15-15-14-14-|-15-15-14-14-|-15-15-14-14-|
|--------------|-------------|-------------|-------------|-------------|
|--------------|-------------|-------------|-------------|-------------|

|-------------|-------------|-------------|-------------|
|-18-18-17-17-|-18-18-17-17-|-18-18-17-17-|-18-18-17-17-|
|-------------|-------------|-------------|-------------|
|-15-15-14-14-|-15-15-14-14-|-15-15-14-14-|-15-15-14-14-|
|-------------|-------------|-------------|-------------|
|-------------|-------------|-------------|-------------|


End
-----|
-15--|
--x--|
-12--|
-----|
-----|
comments
print report bad tab
I want to post or [tab]
guest
You may want to rate the tab now too:
select rating
Please do not post tabs as comments. Select "correction" instead!