Oops, an error
Loading. Please wait.

Black Eyed Tab

version 2
version 2

Whole song

Interactive

8,463 views 9 this week
no commentswrite comment
1 2 3 4 5
worth learning
x 6
add to favorites
launch autoscroll
font size
0
reset
how to read this tab
guitar tuner
Tab Pro tools
  • play this tab
  • loop segment
  • change instrument
  • show fretboard
  • metronome
×
Best way to learn
"Black Eyed"
Autoscroll
slow
fast
+/-
esc
set tempo
stop
Contributor
Title: Black eyed
Artist: placebo
Tabb BY: Daniel "Arnni" Greenwood
comments: This SOng touched me when i first heard it, it is a great song! one of
my fav songs, 
i thought i'd ave a go and try and tab it in Standard tuneing. I Going to Show you
2 Version That i Have, 1 Following the notes
from the tuneing of what brian using and one of my own vartations. Here it goes!

---------------------------

      Variation 1

       Brian's Way
---------------------------

Using the notes brain plays i was able to tab this varitation

Start with playing this Chord using the notes F# and Bb

Verse (Crisp Overdrive sound, not too crunchie)

Repeat
e|-------------------------|
b|-------------------------|
g|-------------------------|
d|-------------------------|
a|-----13------------------|
E|-----14------------------|

I was never faithful
And I was never one to trust
Borderlining schizo
And guaranteed to cause a fuss

I was never loyal
Except to my own pleasure zone
I'm forever black-eyed
A product of a broken home

Interlude(Turn on full volume and crunch!)
e|-------------------------|
b|-------------------------|
g|-------------------------|
d|-------------------------|
a|-----13------------------|
E|-----14------------------|

I was never faithful
And I was never one to trust
Borderline bipolar
Forever biting on your nuts

I was never grateful
That's why I spent my days alone
I'm forever black-eyed
A product of a broken home 
Broken home


Chorus(Turn on full volume and crunch!)
e|-------------------------|
b|-------------------------|
g|-------------------------|
d|-------------------------|
a|-----13------------------|
E|-----14------------------|

Black-eyed, black-eyed
Black-eyed, black-eyed
Black-eyed, black-eyed
Black-eyed, black-eyed

--------------------------------------------------------------------

                         Variation 2

  Using My ears and similair finger postion i discover black eyed

---------------------------------------------------------------------
This is my way of playing it give it more depth i feel


using the notes E and G# this chord is formed

Repeat this for verse

e|-------------------------|
b|-------------------------|
g|-------------------------|
d|-----6-------------------|
a|-----7-------------------|
E|-----0-------------------|

I was never faithful
And I was never one to trust
Borderlining schizo
And guaranteed to cause a fuss

I was never loyal
Except to my own pleasure zone
I'm forever black-eyed
A product of a broken home

For the interludes and chorus
Put the overdrive on an dplay this chord fast!

Using the Notes A , E and G# this chord is formed
e|------------------------|
b|------------------------|
g|------------------------|
d|-----6------------------|
a|-----7------------------|
E|-----5------------------|

Verse 2
e|-------------------------|
b|-------------------------|
g|-------------------------|
d|-----6-------------------|
a|-----7-------------------|
E|-----0-------------------|
I was never faithful
And I was never one to trust
Borderline bipolar
Forever biting on your nuts

I was never grateful
That's why I spent my days alone
I'm forever black-eyed
A product of a broken home
Broken home

Chorus

Put the overdrive on an dplay this chord fast!
e|------------------------|
b|------------------------|
g|------------------------|
d|-----6------------------|
a|-----7------------------|
E|-----5------------------|

Black-eyed, black-eyed
Black-eyed, black-eyed
Black-eyed, black-eyed
Black-eyed, black-eyed
----------------
Thxs
Please Rate
comments
print report bad tab
I want to post or [tab]
guest
You may want to rate the tab now too:
select rating
Please do not post tabs as comments. Select "correction" instead!