Oops, an error
Loading. Please wait.

Black Market Blood Bass Tab

705 views 1 this week
no commentswrite comment
1 2 3 4 5
please rate
add to favorites
launch autoscroll
font size
0
reset
guitar tuner
Autoscroll
slow
fast
+/-
esc
set tempo
stop
Help us to improve Ultimate-Guitar.com Take our survey!
×
Author
-------------------------------------------------------------------------------
			     BLACK MARKET BLOOD -Placebo
-------------------------------------------------------------------------------
Tabbed by:Luis Gustavo Hernández Collado
Email:ltavo_87@hotmail.com

Tuning:EADG

Intro

G|--------------------|
D|--------------------| X4
A|--------------------|
E|-4-4-4-4-4-4-4-4-1r-|
r=let ring

Verse 1
(Wasted face that swallowed time...)
G|-------------|
D|-------------| X2
A|-------------|
E|-4-3/8/4-3-1-|

Chorus 1
(Hear her calling, hear her calling you...)
G|--------------------|
D|--------------------| X4
A|--------------------|
E|-4-4-4-4-4-4-4-4-1r-|
r=let ring

Verse 2
(There's a place within her mind...)
G|-------------|
D|-------------| X2
A|-------------|
E|-4-3/8/4-3-1-|

Chorus 2
(Hear her calling, hear her calling you...)
G|--------------------|
D|--------------------| X4
A|--------------------|
E|-4-4-4-4-4-4-4-4-1r-|
r=let ring

Verse 3
(She's preparing for the flood...)
G|-------------|
D|-------------| X2
A|-------------|
E|-4-3/8/4-3-1-|

Chorus 3
(Black market blood...)
G|--------------------|
D|--------------------| X2
A|--------------------|
E|-4-4-4-4-4-4-4-4-1r-|
r=let ring

Verse 4
(Wasted face that swallowed time...)
G|-------------|
D|-------------| X2
A|-------------|
E|-4-3/8/4-3-1-|

Chorus 4
(Hear her calling, hear her calling you...)
G|--------------------|
D|--------------------| X4
A|--------------------|
E|-4-4-4-4-4-4-4-4-1r-|
r=let ring

Verse 5
(She's preparing for the flood...)
G|-------------|
D|-------------| X2
A|-------------|
E|-4-3/8/4-3-1-|

Chorus 5/Outro
(Black market blood...)
G|--------------------|
D|--------------------| X4
A|--------------------|
E|-4-4-4-4-4-4-4-4-1r-|
r=let ring
Suggest correction
Give kudos to tab author, rate the tab!
1 2 3 4 5
comments
print report bad tab
guest
You may want to rate the tab now too:
select rating
Please do not post tabs as comments. Select "correction" instead!