Oops, an error
Loading. Please wait.

Buger Queen Tab

2,699 views 1 this week
1 commentread comment
1 2 3 4 5
please rate
add to favorites
launch autoscroll
font size
0
reset
how to read this tab
guitar tuner
Tab Pro tools
  • play this tab
  • loop segment
  • change instrument
  • show fretboard
  • metronome
×
Best way to learn
"Buger Queen"
Autoscroll
slow
fast
+/-
esc
set tempo
stop
PART 1.......
eb|-------------------|------------------|----------------|--------------------------|
Bb|-------------------|------------------|----------------|--------------------------|
Gb|-------------------|------------------|----------------|--------------------------|
Db|-------------------|------------------|----------------|--------------------------|
Ab|--4---4---5---4----|-----4-4---4--4---|--0--0-0-----0--|--0--0----0--0------------|
Eb|--5---5---5---5----|-----5-5---5--5---|--2--2-2-/s/-5--|--5--5----5--5------------|
eb|-------------------|-------------------|-----------------------|------------------|
Bb|-------------------|-------------------|-----------------------|------------------|
Gb|-------------------|-------------------|-----------------------|------------------|
Db|-------------------|--2----------------|-----------------------|------------------|
Ab|--4-/s/--2--2--2---|-----2---2---2--2--|-------5-----5-------4-|-2--------0-------|
Eb|--0---------0--0---|---------0---0--0--|--/s/--0-----0-------0-|-0--------0-------|
PART 2........*   ============= EQUALS REPEATED PICKING (SOFTLY)
eb|----------------------------------------------------------------------------------|
Bb|---14========-12==========10========9------5-5-5---14======12========14======12---|
Gb|----------------------------------------------------------------------------------|
Db|----------------------------------------------------------------------------------|
Ab|----------------------------------------------------------------------------------|
Eb|----------------------------------------------------------------------------------|
PART 3...........eb|-----------------------|R|------------------------------|R-------|
Bb|-----------------------|R|------------------------------|R------------------------|
Gb|-----------------------|R|------------------------------|R------------------------|
Db|-------------6---------|R|---6-6-6-6------4-----6-6-6-6-|R------------------------|
Ab|--4--4--4----7---------|R|---7-7-7-7--\S\-5-/S/-7-7-7-7-|R------------------------|
Eb|--5--5--5--------------|R|--------------------------------------------------------|R|   R = REPEAT
PART 4eb|----------------------------------------------------------------------------|
Bb|---10========-9===10======12--10---9-9-9----4---5========-------------------------|
Gb|----------------------------------------------------------------------------------|
Db|----------------------------------------------------------------------------------|
Ab|----------------------------------------------------------------------------------|
Eb|----------------------------------------------------------------------------------|
REPEAT A FEW TIMES THEN.....
eb|-------------------------------------------------------------------|
Bb|---10========-9===10=================12--9================---------|
Gb|-------------------------------------------------------------------|
Db|-------------------------------------------------------------------|
Ab|-------------------------------------------------------------------|
Eb|-----------------------------------------------------------|PART 5-|
eb|------------------------------------------------|R-----------------|
Bb|---10=====================-9====================|R-----------------|
Gb|------------------------------------------------|R-----------------|
Db|------------------------------------------------|R-----------------|
Ab|------------------------------------------------|R-----------------|
Eb|------------------------------------------------|R|PART 6----------|
eb|------------------------------------------------|R-----------------|
Bb|------------------------------------------------|R-----------------|
Gb|------------------------------------------------|R-----------------|
Db|------------------------------------------------|R-----------------|
Ab|------------------------------------------------|R-----------------|
Eb|----(7)--(7)------------------------------------|R|PART 7----------|
eb|-------------------------------------------------|R----------------|
Bb|-------------------------------------------------|R----------------|
Gb|-------------------------------------------------|R----------------|
Db|----11------------------10-10------6-------------|R----------------|
Ab|----12================= 11 11------7=============|R----------------|
Eb|-------------------------------------------------|R----------------|
PARTS1 AND 2 ARE PLAYED TOGETHERPARTS 3 AND 4 ARE PLAYED TOGETHER
PARTS 5,6 AND SEVEN ARE PLAYED TOGETHER
comments
We did not receive enough feedback on this tab! Please rate:
print report bad tab
1 2 3 4 5
1 comment total.
0 reply
stumaster18 wrote on June 7 2006, 03:20 pm

ah man...sucks that you spelt this "buger"

I want to post or [tab]
guest
You may want to rate the tab now too:
select rating
Please do not post tabs as comments. Select "correction" instead!