Oops, an error
Loading. Please wait.

Burger Queen Bass Tab

version 1
version 1

Whole song

Interactive

1,164 views 6 this week
1 commentread comment
1 2 3 4 5
please rate
add to favorites
launch autoscroll
font size
0
reset
guitar tuner
Tab Pro tools
  • play this tab
  • loop segment
  • change instrument
  • show fretboard
  • metronome
Autoscroll
slow
fast
+/-
esc
set tempo
stop
Song: "Burger Queen"
by PLACEBO
from the album: "Without You I'm Nothing"
written by: Molko, Olsdal, Hewitt
tabbed by: Guido Comparato 

 Stefan Olsdal doesn't usually use the standard tuning; in this song 
 tune down 1/2 step the bass or the E string...

 Verse / Chorus / Interlude
Gb|---------------------------------------------|
Db|---------------------------------------------|
Ab|---------------------------------------------|
Eb|--5----------2----------0--------------------|

 Corrections, comments or anything else to comparato@fcmail.com

 Bye bye
comments
We did not receive enough feedback on this tab! Please rate:
print report bad tab
1 2 3 4 5
1 comment total.
+1 reply
tim p wrote on April 24 2003, 12:00 am

this riff is used throughout this song:

G|--------------------------------------
D|--------------------------------------
A|-4--4--5--4--4-4--4-4-0--0--0--0--0-0-
E|-5--5--5--5--5-5--5-5-2--2--2--5--5-5-

G|------------------------------------
D|-----------------2------------------
A|-0-0-4\2--2--2--(2)----2-2--4\2-2-2-
E|-5-5-0-0--0--0------0--0-0--0-0-0-0-

G|-----------
D|-----------
A|-5--4-4--2-
E|-0--0-0--0-

I want to post or [tab]
guest
You may want to rate the tab now too:
select rating
Please do not post tabs as comments. Select "correction" instead!