Oops, an error
Loading. Please wait.

Come Home Tab

version 2
version 2

Whole song

Interactive

1,178 views 6 this week
no commentswrite comment
1 2 3 4 5
accurate
x 2
add to favorites
launch autoscroll
font size
0
reset
how to read this tab
guitar tuner
Tab Pro tools
  • play this tab
  • loop segment
  • change instrument
  • show fretboard
  • metronome
Autoscroll
slow
fast
+/-
esc
set tempo
stop
Contributor
Difficulty
novice
Placebo - Come Home

From the self-titled debut album Placebo (1996)

Tuning: F A# D# G# C C

Verse/Intro:

C  ------------------------------           ----         ----|
C  --6-6---6--6--6--6--66666------   x2     -1--         ----|
G# --4-4---4--4--4--4--44444------          -0--         -5--|
D# --3-3---3--3--3--3--33333------          -2--   or    -5--|
A# ------------------------------           -3--         -3--|
F  ------------------------------           ----         ----|

Chorus:  (You can pluck these more or fewer times as you wish)

C  ----------------------------------------------------------------|
C  ---/8--8-8-8-8--8--8-8-8-8--------------------------------------|
G# ----------------------------------------------------------------|
D# ---------------------------/9--9-9-9-9--10--10-10-10-10---------|
A# ----------------------------------------------------------------|
F  ----------------------------------------------------------------|

Bridge (2:34): (Note there is some plucking behind the strings, feel free to
                add it in)

   (let ring)
C  -0-------0-----|
C  -0-------0-----|
G# -2-------2-----|   x2
D# -3-------2-----|
A# ---------0-----|
F  ---------------|

     (Listen out for strumming)

C  -0-----0--------0-------|
C  -0-----0--------0-------|
G# -2-----0--------2-------|
D# -3-----3--------2-------|
A# ----------------0-------|
F  ------------------------|



Enjoy, rate and give me feedback/criticisms as you wish. lick_library@hotmail.co.uk.

Thanks.
comments
We did not receive enough feedback on this tab! Please rate:
print report bad tab
1 2 3 4 5
I want to post or [tab]
guest
You may want to rate the tab now too:
select rating
Please do not post tabs as comments. Select "correction" instead!