Oops, an error
Loading. Please wait.

Commercial For Levi Tab

version 2
version 2

Whole song

Interactive

5,845 views 15 this week
2 commentsread comments
1 2 3 4 5
2 more votes to show rating
add to favorites
launch autoscroll
font size
0
reset
how to read this tab
guitar tuner
Autoscroll
slow
fast
+/-
esc
set tempo
stop
Help us to improve Ultimate-Guitar.com Take our survey!
×
Author
-------------------------------------------------------------------------------
                             COMMERCIAL FOR LEVI - Placebo
-------------------------------------------------------------------------------
Tabbed by:Luis Gustavo Hernández Collado
Email:ltavo_87@hotmail.com

Tuning:DADGBe

Intro
e|--------------------------------------------|
B|-------6-66-------6-68-------6-66-------8-6-|
G|--------------------------------------------|
D|-10-12------10-12------10-12------10-12-----|
A|-------6-66-------6-66-------6-66-------6-6-|
D|-8--8-------8--8-------8--8-------8--8------|

Verse 1
(You're the one who's always choking trojan...)
e|--------------------------------------------|
B|-------6-66-------6-68-------6-66-------8-6-|
G|--------------------------------------------|
D|-10-12------10-12------10-12------10-12-----|
A|-------6-66-------6-66-------6-66-------6-6-|
D|-8--8-------8--8-------8--8-------8--8------|

(...sleep may be the enemy, but so is another line...)
e|----------------|
B|--------11-10-8-|
G|-7-8-10---------| X4
D|----------------|
A|----------------|
D|-8-8-8--8--8--8-|

(...you're the one who's always choking trojan...)
e|--------------------------------------------|
B|-------6-66-------6-68-------6-66-------8-6-|
G|--------------------------------------------|
D|-10-12------10-12------10-12------10-12-----|
A|-------6-66-------6-66-------6-66-------6-6-|
D|-8--8-------8--8-------8--8-------8--8------|

(... spunk and bestiality, well it's an assisi lie...)
e|----------------|
B|--------11-10-8-|
G|-7-8-10---------| X4
D|----------------|
A|----------------|
D|-8-8-8--8--8--8-|

Chorus 1
(...I understand the fascination...)
e|---------------|
B|---------------|
G|-------10-1010-| X4
D|-10-12-10-1010-|
A|-8--8--8--8-8--|
D|-8--8----------|

(...but if you don't change your situation...)
e|------------|
B|------------|
G|-------8-88-| X4
D|-10-12-8-88-|
A|-8--8--6-66-|
D|-8--8-------|

(...donn't die, please don't die...)
e|------3-33-------3-33------3-33-----------|
B|-3-3--3-33--3-3--3-33--3-3-3-33------44-3-|
G|-3-3--x-xx--3-3--x-xx--3-3-x-xx--3-3------|
D|-x-x--1-11--x-x--1-11--x-x-1-11--3-3------|
A|-1-1--------1-1--------1-1-------1-1------|
D|------------------------------------------|

Verse 2
(...you're the one who's always choking trojan...)
e|--------------------------------------------|
B|-------6-66-------6-68-------6-66-------8-6-|
G|--------------------------------------------|
D|-10-12------10-12------10-12------10-12-----|
A|-------6-66-------6-66-------6-66-------6-6-|
D|-8--8-------8--8-------8--8-------8--8------|

(...drunk on immorality, valium and cherry wine...)
e|----------------|
B|--------11-10-8-|
G|-7-8-10---------| X4
D|----------------|
A|----------------|
D|-8-8-8--8--8--8-|

Chorus 2
(...I understand the fascination...)
e|---------------|
B|---------------|
G|-------10-1010-| X4
D|-10-12-10-1010-|
A|-8--8--8--8-8--|
D|-8--8----------|

(...but if you don't change your situation...)
e|------------|
B|------------|
G|-------8-88-| X4
D|-10-12-8-88-|
A|-8--8--6-66-|
D|-8--8-------|

Outro
(...don't die, please don't die...)
e|----------------|
B|--------11-10-8-|
G|-7-8-10---------| X5
D|----------------|
A|----------------|
D|-8-8-8--8--8--8-|

e|-------------------|
B|--------11-10-8----|
G|-7-8-10---------7r-| X4
D|-------------------|
A|-------------------|
D|-8-8-8--8--8--8-8r-|
r=let ring
Suggest correction
Give kudos to tab author, rate the tab!
1 2 3 4 5
comments
print report bad tab
2 comments total.
0 reply
Cachabolik 234 Aug 15, 2009 12:34 PM

Correction for Intro
e|--------------------------------------------|
B|-------6-66-------6-6-10--------6-66-------8-6-|
G|-----------------------------------------------|
D|-10-12------10-12---------10-12------10-12-----|
A|-------6-66-------6-6-6---------6-66-------6-6-|
D|-8--8-------8--8----------8--8-------8--8------|

0 reply
sguitar 882 Jan 28, 2013 08:38 AM

correction:
e|----------------------------------------|
B|-----------11-10-8-------------11-10-11-|
G|-7-8-10-8------------7-8-10-8-----------| X2
D|----------------------------------------|
A|------------6--6-6--------------6--6--6-|
D|-8-8-8--8------------8-8-8--8-----------|

i actually play it in standard tuning like this

e|-----------6-5----------------6-5-6--|
B|-----5---------8--------5------------|
G|-7-8---8------------7-8---8----------| X2
D|-------------------------------------|
A|-----------6-6-6--------------6-6-6--|
D|-6-6-6-6------------6-6-6-6----------|

guest
You may want to rate the tab now too:
select rating
Wanna post a correction for this tab? Suggest correction