Oops, an error
Loading. Please wait.

Days Before You Came Tab

version 1
version 1

Whole song

Interactive

3,551 views 12 this week
no commentswrite comment
1 2 3 4 5
1 last vote to show rating
add to favorites
launch autoscroll
font size
0
reset
how to read this tab
guitar tuner
Autoscroll
slow
fast
+/-
esc
set tempo
stop
Help us to improve Ultimate-Guitar.com Take our survey!
×
Days Before You Came - Placebo (EADGBe)

tabbed by Claudio Pellegrino (Italy) -email: pellegrinho@hotmail.com
date: 28th march 2003


Intro: x2

	Guit 1:
e|---------------------------------------------------
B|-6-66666666666\555555555555-------------------66\5-
G|----------------------------8-88888-6-8-88888------
D|---------------------------------------------------
A|---------------------------------------------------
E|---------------------------------------------------
                              |         |
	Guit 2:               |         |
e|---------------------------------------------------
B|---------------------------------------------------
G|---------------------------------------------------
D|----------------------------4~~~4~~~--4~~~4~~~-----
A|----------------------------4~~~4~~~--4~~~4~~~-----
E|----------------------------2~~~2~~~--2~~~2~~~-----



-Verse A: x2 intro



-Pre Chorus:

	Guit 1:  
e|---------------------------------------------------------------------------------
B|---------------------------------------------------------------------------------
G|---------------------------------------------------------------------------------
D|-8-88-8-88-8-8-6-66-6-66-6-6-----------------------------------------------------
A|------------------------------8--8--8--8--9--9-9--9--9--8--8--8--8--9--9-9--9--9-
E|---------------------------------------------------------------------------------
  |........ STACCATO .........|

	Guit 2:
e|---------------------------------------------------------------------------------
B|---------------------------------------------------------------------------------
G|-----------------------------10-10-10-10\11-1111-11-11/10-10-10-10\11-1111-11-11-
D|-----------------------------10-10-10-10\11-1111-11-11/10-10-10-10\11-1111-11-11-
A|------------------------------8--8--8--8\-9--9-9--9--9/-8--8--8--8\-9--9-9--9--9-
E|---------------------------------------------------------------------------------



-Chorus A:

	Guit 1: x2
e|----------------------------------------------------------
B|----------------------------------------------------------
G|-9-9-9-10-10-10-6-6-6-8-8-88-|9-9-9-10-10-10-6-6-6-8-8-88-
D|----------------------------------------------------------
A|----------------------------------------------------------
E|----------------------------------------------------------

	Guit 2: mute



-Verse B: intro x2



-Bridge:

	Guit 1: (-)=armonic note played all over the bridge
e|-------------------------------------
B|-------------------------------------
G|-------------------------------------
D|-------------------------------------
A|-(3)-(3)-(3)-(3)---etc---last=(3)~~~-
E|-------------------------------------

	Guit 2: x4 (after every "Do what you anyway")
e|-------------------------------------
B|-------------------------------------
G|-------------------------------------
D|-------------------------------------
A|-----------------3-44~~~~~-----------
E|-------------------------------------



-Chorus B:

	Guit 1: x4
e|----------------------------------------------------------
B|----------------------------------------------------------
G|-9-9-9-10-10-10-6-6-6-8-8-88-|9-9-9-10-10-10-6-6-6-8-8-88-
D|----------------------------------------------------------
A|----------------------------------------------------------
E|----------------------------------------------------------

	Guit 2: first 2 times mute, then x2 like this
e|----------------------------------------------------------
B|----------------------------------------------------------
G|-9-9-9-10-10-10-6-6-6-8-8-88-|9-9-9-10-10-10-6-6-6-8-8-88-
D|----------------------------------------------------------
A|----------------------------------------------------------
E|----------------------------------------------------------



-Outro A: x2 intro


-outro B: x2 chorus B with both guit 1&2 playing
	
	Guit 1: end in G|-6~~~
	Guit 2: end in C#5


this is my second tab, made for two guitars but playable also with one. it really
sounds damn perfect to me. if u have any comment or correction please email me at
pellegrinho@hotmail.com

-clau-
Suggest correction
Give kudos to tab author, rate the tab!
1 2 3 4 5
comments
print report bad tab
guest
You may want to rate the tab now too:
select rating
Wanna post a correction for this tab? Suggest correction