Oops, an error
Loading. Please wait.

Days Before You Came Tab

version 2
version 2

Whole song

Interactive

3,851 views 21 this week
no commentswrite comment
1 2 3 4 5
accurate
x 5
add to favorites
launch autoscroll
font size
0
reset
how to read this tab
guitar tuner
Tab Pro tools
  • play this tab
  • loop segment
  • change instrument
  • show fretboard
  • metronome
Autoscroll
slow
fast
+/-
esc
set tempo
stop
Contributor
Tuning (Thickest to Thinnest)
Please note: Thick F string is now F#
F#, Bb, Eb, G#, C, C.

Intro: * mean quick double up/down stroke of note.
Heavily distorted guitar.

C  ----------------------------------------------------
C  ----------------------------------------------------
G# ----------------------------------------------------
Eb -10-10-10-10-10-10-10-10-10-10-10-10-10-10-10-10-10-
Bb ----------------------------------------------------
F# ----------------------------------------------------
*

C  -----------------------------------------
C  -----------------------------------------
G# -----------------------------------------
Eb -9-9-9-9-9-9-9-9-9-9-9-9-9-9-9-9-9-------
Bb -----------------------------------------
F# -----------------------------------------
*


C  ------------------------------------------------------------------
C  ------------------------------------------------------------------
G# ------------------------------------------------------------------
Eb ------------------------------------------------------------------
Bb -12--12-12-12-12-12-12--10-10-10--12-12-12-12-12--12--15-14-14-14-
F# -0---0--0--0--0--0--0---0--0--0---0--0--0--0--0---0---0--0--0--0--


"Won't you join me now?" guitar part:
<____> means staccato, stop-start strumming.


<____________> <____________> 
C  -------------------------------------------------------
C  -------------------------------------------------------
G# -------------------------------------------------------
Eb -7-7-7-7-7-7--7--7--7-7--7--5-5-5-5-5-5--5--5--5--5-5--
Bb -------------------------------------------------------
F# -------------------------------------------------------

C  -------------------------------------------------------
C  -------------------------------------------------------
G# -------------------------------------------------------
Eb -------------------------------------------------------
Bb -7--7--7-7-7-8--8-8-8-8--8--7--7-7-7-7--8--8-8-8-8-8-8-
F# -0--0--0-0-0-0--0-0-0-0--0--0--0-0-0-0--0--0-0-0-0-0-0-

Guitar part that enters next (live, played by Bill).


C  -----------------------------------------
C  -----------------------------------------
G# -----------------------------------------
Eb --13-13-13-14-14-14-10-10-10-12-12-12----
Bb -----------------------------------------repeat
F# -----------------------------------------


"I don't want you anyway.." part

C  -------------------------------------- ---------
C  -------------------------------------- ---------
G# -------------------------------------- ---------
Eb -------------------------------------- repeat ---------
Bb -(3)-(3)-(3)-(3)-(3)-(3)-------------- these  -2-2-2-3-
F# -------------------------------------- harmonics then --------- (All X4)
comments
print report bad tab
I want to post or [tab]
guest
You may want to rate the tab now too:
select rating
Please do not post tabs as comments. Select "correction" instead!