Oops, an error
Loading. Please wait.

Days Before You Came Tab

version 4
version 4

Whole song

Interactive

2,226 views 1 this week
no commentswrite comment
1 2 3 4 5
please rate
add to favorites
launch autoscroll
font size
0
reset
how to read this tab
guitar tuner
Autoscroll
slow
fast
+/-
esc
set tempo
stop
Help us to improve Ultimate-Guitar.com Take our survey!
×
Author
-------------------------------------------------------------------------------
                             DAYS BEFORE YOU CAME - Placebo
-------------------------------------------------------------------------------
Tabbed by:Luis Gustavo Hernández Collado
Email:ltavo_87@hotmail.com

Tuning:EADGBe

Intro
e|----------------------------------------------|
B|----------------------------------------------|
G|-66666666-55555555----------------------------| X2
D|-88888888-88888888-8-88-8-6-66-6-8-88-8-11-10-|
A|-------------------9-99-9-9-99-9-9-99-9-9--9--|
E|----------------------------------------------|

Verse 1
(Days before you came, freezing cold and empty...)
e|----------------------------------------------|
B|----------------------------------------------|
G|-66666666-55555555----------------------------| X2
D|-88888888-88888888-8-88-8-6-66-6-8-88-8-11-10-|
A|-------------------9-99-9-9-99-9-9-99-9-9--9--|
E|----------------------------------------------|

Chorus 1
(...Won't you join me now, baby's looking torn and frayed...)
e|-------------------------------------------------------|
B|-------------------------------------------------------|
G|-3-3-3-3-3-3-1-1-1-1-1-1-------------------------------| X2
D|-------------------------3-3-3-3-3-3-----3333-----3333-|
A|-------------------------------------------------------|
E|-------------------------------------2-2------2-2------|

Verse 2
(...Days before you came, it always seemed enticing...)
e|----------------------------------------------|
B|----------------------------------------------|
G|-66666666-55555555----------------------------| X2
D|-88888888-88888888-8-88-8-6-66-6-8-88-8-11-10-|
A|-------------------9-99-9-9-99-9-9-99-9-9--9--|
E|----------------------------------------------|

Chorus 2
(...Didn't ant you anyway, didn't want you anyway...)
e|--------------------------|
B|--------------------------|
G|-10-10-10-10-10-10--------| X4
D|-------------------101011-|
A|-------------------x-x-x--|
E|-------------------8-8-9--|

(...Won't you join me now, baby's looking torn and frayed...)
e|-------------------------------------------------------|
B|-------------------------------------------------------|
G|-3-3-3-3-3-3-1-1-1-1-1-1-------------------------------| X2
D|-------------------------3-3-3-3-3-3-----3333-----3333-|
A|-------------------------------------------------------|
E|-------------------------------------2-2------2-2------|

Outro
(...Days before you came, days before you came, daye before you...)
e|----------------------------------------------|
B|----------------------------------------------|
G|-66666666-55555555----------------------------| X2
D|-88888888-88888888-8-88-8-6-66-6-8-88-8-11-10-|
A|-------------------9-99-9-9-99-9-9-99-9-9--9--|
E|----------------------------------------------|

(...Didn't ant you anyway, didn't want you anyway...)
e|--------------------------|
B|--------------------------|
G|-10-10-10-10-10-10--------| X3
D|-------------------101011-|
A|-------------------x-x-x--|
E|-------------------8-8-9--|

e|-------------------------------|
B|-------------------------------|
G|-10-10-10-10-10-10--------10PM-|
D|-------------------101011------|
A|-------------------x-x-x-------|
E|-------------------8-8-9-------|
PM=PALM MUTE
Suggest correction
Give kudos to tab author, rate the tab!
1 2 3 4 5
comments
print report bad tab
guest
You may want to rate the tab now too:
select rating
Please do not post tabs as comments. Select "correction" instead!